» » »

Rivermaya - Liwanag Sa Dilim Chords

Artists:  A B C D E F G H I J K L M N O P Q R S T U V W X Y Z # 

Liwanag Sa Dilim Chords

(ver. 1) Click to play this song!
Rivermaya
 Rating:
4.3/5 (26 votes)

 Liwanag Sa Dilim lessons Tabs too difficult? Try these video lessons and learn fast
 
                [Intro]

       Dsus4       Em7,F6sus2,Em7,Dsus4,Csus2
e|---3-3-3-3-3-3----3---3---3---3---3---|
B|---3-3-3-3-3-3----3---3---3---3---3---|
G|---0-0-0-0-0-0----0---0---0---0---0---|
D|---0-0-0-0-0-0----2---3---2---0---x---|
A|---x-x-x-x-x-x----x---x---x---x---3---|
E|---x-x-x-x-x-x----x---x---x---x---x---|

       Dsus4       Em7,F6sus2,Em7,Dsus4,Csus2
e|---3-3-3-3-3-3----3---3---3---3---3---|
B|---3-3-3-3-3-3----3---3---3---3---3---|
G|---0-0-0-0-0-0----0---0---0---0---0---|
D|---0-0-0-0-0-0----2---3---2---0---x---|
A|---x-x-x-x-x-x----x---x---x---x---3---|
E|---x-x-x-x-x-x----x---x---x---x---x---|

       Dsus3            Em7   Csus2
e|---3--3--3--3--3--3----3---3-3-3-3---|
B|---3--3--3--3--3--3----3---3-3-3-3---|
G|---0--0--0--0--0--0----0---0-0-0-0---|
D|---0--0--0--0--0--0----2---3-3-3-3---|
A|---x--x--x--x--x--x----x---x-x-x-x---|
E|---x--x--x--x--x--x----x---x-x-x-x---|


  Csus2,Em7,G     Csus2,Em7,F6sus2
e|---3--3--3-3-3-----3--3--3--3--3---|
B|---3--3--3-3-3-----3--3--3--3--3---|
G|---0--0--0-0-0-----0--0--0--0--0---|
D|---x--x--0-0-0-----x--x--x--x--x---|
A|---3--2--x-x-x-----3--2--3--3--3---|
E|---0--0--3-3-3-----------1--1--1---|

  Csus2,Em7,G       Dsus2,Em7,Csus2
e|---3--3--3-3-3-----3--3--3--3--3----|
B|---3--3--3-3-3-----3--3--3--3--3----|
G|---0--0--0-0-0-----0--0--0--0--0----|
D|---x--x--0-0-0-----0--2--3--3--3----|
A|---3--2--x-x-x-----x--x--x--x--x----|
E|---0--0--3-3-3-----x--x--x--x--x----|

    Csus2,Em7,G     Dsus2,Em7,F6sus2
e|---3--3--3-3-3-----3--3--3--3--3---|
B|---3--3--3-3-3-----3--3--3--3--3---|
G|---0--0--0-0-0-----0--0--0--0--0---|
D|---x--x--0-0-0-----x--x--x--x--x---|
A|---3--2--x-x-x-----3--2--3--3--3---|
E|---0--0--3-3-3-----------1--1--1---|

  Csus2,Em7,Em       F
e|---3--3--0-0-0-----1---|
B|---3--3--0-0-0-----1---|
G|---0--0--0-0-0-----2---|
D|---x--x--2-2-2-----3---|
A|---3--2--2-2-2-----3---|
E|---0--0--0-0-0-----1---|

[Verse]
G                 F6sus2
Ituring ang iyong sariling
G
Tagahawi ng ulap
               F6sus2
Sa kalangitang kulimlim
G
Kampanang yayanig
F6sus2
Sa bawat nilalang
G
Magigising ang lupang
F6sus2
Kulang sa dilig


[Pre-Chorus]
Em
Ikaw ang magsasabing
F6sus2
"Kaya mo to!"
Em
Tulad ng isang tanglaw
F6sus2
Sa gitna ng bagyo


[Chorus]
G
Isigaw mo sa hangin
F6sus2
Tumindig at magsilbing
G
Liwanag
F6sus2
Liwanag sa Dilim
G
Harapin mong magiting
F6sus2
Ang bagong awitin
G        F6sus2
Ikaw ang Liwanag sa Dilim

            
Submit corrections


        Liwanag Sa Dilim lessons Hard to play? Try these video lessons and learn fast Liwanag Sa Dilim lessons
        
↑ Back to top | Tablatures and chords for acoustic guitar and electric guitar, ukulele, drums are parodies/interpretations of the original songs. You may use it for private study, scholarship, research or language learning purposes only