» » »

Rival Schools - Usedforglue Good Tabs

Artists:  A B C D E F G H I J K L M N O P Q R S T U V W X Y Z # 

Usedforglue Good Tabs

(ver. 1) Click to play this song!
Rival Schools
 Rating:
4/5 (4 votes)

 Usedforglue Good lessons Tabs too difficult? Try these video lessons and learn fast
 
                Song- used for glue
band- rival schools
album- united by fate

dropped d tuning

Key:
/ \ = slide up/down

<*----*> =section is played with tremelo picking
<*----*>

b =bend

-----
Intro 1
-----

e-----------------------------------------------------------------------
B----10---10-----------10---10--------------10----10-------------------
G-----9---9-------------8----8---------------9-----9--------------------
D-----7---7-------------7----7---------------7-----7------------------
A---------------------------------------------------------------------
D--------------------------------------------------------------------

rythm indicated for these chords below. The drums play quavers on the hihat 
and the chords are
played in semi-quavers i think 

...as illustrated HyA

1---and---2---and---1---and---2---and---1---and---2--- drum 
1-e-and-a-2-----------------------------1-e-and=a-2----guitar


---------------------
Intro 2 w/distortion
--------------------

this comes in at 0:10

e----------------------------------------------------------
B-------------------------------------------------------------
G---------------------------------------------------------------
D------4-4-4-4-4-4-4-4-----4-4-4-4-4-4-4----------------
A------4-4-4-4-4-4-4-4-----4-4-4-4-4-4-4-----------------
D------4-4-4-4-4-4-4-4-----4-4-4-4-4-4-4--------ETC.--








----------
Verse
--------

e------------|			-------------------
B------------|			----------------------
G------------|		--->	--------------------
D--0---0-----|		--->	-----4----4----4---------
A--0---0-----|-ETC.                                -----4----4----4-----ETC.
D--0---0-----|			-----4----4----4-----------

days over comfort...		..you hear it now...

This little ditty also pops up every now and then in the verses
 if you listen
e---------------------
B---------------------
G----------------------
D-----------------------
A---5/9----9\5----5/9-----
D----------------------


when the massive disortion calms down at 0:56 i think it is 
clean verse riff with this over it 
(w/delay or chorus or something)

e------------------------
B------------5---------5---
G---------0----------0-----
D-------4----------4--------
A------------------------
D-------------------------

..you hear it now...


played kind of arpeggio stytles up and down


-----------
Chorus
-----------


e----------------------------------------------
B----------------------------------------------
G----------------------------------------------
D---4--4--4--4------5-5------0-0-0-0-0-------------	X3
A---4--4--4--4------5-5------0-0-0-0-0------------
D---4--4--4--4------5-5------0-0-0-0-0----------------
			

...and used for glue..yeah


VERSE AGAIN
CHORUS AGAIN
----------------------------
after 2nd chorus, before solo
---------------------------

e-------------------------------------------------------
B-------------5-------5--------5--------5----------
G----------0-------0---------0------0--------------
D--------4-----------------4----------------------
A-----------------------------------------------
D------------------------------------------------
				....listen now 


------------		
solo  part 1		
----------	---

with underneath
D--4-4-4---------			
A--4-4-4---------
D--4-4-4----------



e-----------------------------------------------------------------------------
B-----------------------------------------------------------------------------
G--------------------------------------------------------------------------------
D-<*--2h4-4 -6-77--12-12-11-11-9-9--7-7-6-6-4-4-2-2-0-0-----------
A-<*------------------------------------------------------------------------
D-<*------------------------------------------------------------------------

e----------------------------------------------------------------------------
B------------------------------------------------------------------------
G------------------------------------------------------------------------
D----------------------------------------*>----------44444444----ETC.
A-------4-4--2-2--0-0--------------------*>----------44444444--------
D----------------------6-6--4--2---------*>----------44444444-------


--------------
solo part 2
-------------

e--------------------------------------------------------------------
B--------------------------------------------------------------------
G--<*-18-------18-----18-----------------------------------------
D--<*-----16-------16------11-12--14--12--11--12&#8212;14------
A--<*-------------------------------------------------------------------
D---------------------------------------------------------------------

e-----------------------------------------------------------
B-----------------------------------------------------------
G---------------------*>-----18    let-ring-----------------
D-----16--14--16------*>-----16-------------------------------
A---------------------*>---------------------------------------
D------------------------------------------------------------------

As the last notes of the solo are played the chorus riff is played clean 
to begin with until distortion kicks in when Walter sings 
"you got it, you got it"
play chorus until outro which is just

e------------------------------------|
B------------------------------------|
G-------------------------------------|
D-----44444444-4444444-----------------|
A-----44444444-4444444-----------------|
D-----44444444-4444444-----------------|


CHEERS AND HAVE FUN PLAYING THIS COOL SONG!
            
Submit corrections


        Usedforglue Good lessons Hard to play? Try these video lessons and learn fast Usedforglue Good lessons
        
↑ Back to top | Tablatures and chords for acoustic guitar and electric guitar, ukulele, drums are parodies/interpretations of the original songs. You may use it for private study, scholarship, research or language learning purposes only