» » »

Ritchie Valens - La Bamba Tabs

Artists:  A B C D E F G H I J K L M N O P Q R S T U V W X Y Z # 

La Bamba Tabs

(ver. 1) Click to play this song!
Ritchie Valens
 Rating:
4.3/5 (18 votes)

 La Bamba lessons Tabs too difficult? Try these video lessons and learn fast
 
                 Intro
  Q=152
  N.C.       C      F     G             F         C       F     G
 4/4
  Gtr I (Clean El. Gtr.)
  W          Q  E E E E E E   +E  E E E E E E E   E E E E E E E E
|----------|----------------|-------------------|---------1-1-1----|
|----------|----1-1-1---1-0-|-(0)-------1-1-1-1-|-1-1-1-1-1-1-1-0--|
|----------|----0-0-2---2-0-|-(0)-------2-2-0-0-|-0-0-0-0-2-2-2-0--|
|----------|----2---3-3-3-0-|-(0)-----0-3-3-2-0-|-2-2-2-2-3-3-3-0--|
|----------|-3--------------|-------2-----------|-3-3-3-3-------0--|
|----------|----------------|-----3-------------|------------------|


                1st, 3rd & 4th Verses
              $
              $$
                 C       F     G             F
  e E Q  H       E E E E E E E E   +E  E E E E E E E
|-3-----------||-----------------|-------------------|
|-0-----------||-----1-------1-0-|-(0)-------1-1-1-1-|
|-0-----------||---0---0-2-2-2-0-|-(0)-------2-2-0-0-|
|-0-----------||---------3-3-3-0-|-(0)-----0-3-3-2-0-|
|-2-----------||-3---------------|-------2-----------|
|-3-----------||-----------------|-----3-------------|


                                                                     To Coda
  C       F     G             F         C       F     G             F
  E E E E E E E E   +E  E E E E E E E   E E E E E E E E   +E  E E E E E E E
|-----------------|-------------------|-----------------|---------------------|
|-------------1-0-|-(0)-------1-1-1-1-|-----1-------1-0-|-(0)-------1-1-1-1---|
|-----0---2-2-2-0-|-(0)-------2-2-0-0-|---0---0-2-2-2-0-|-(0)-------2-2-0-0---|
|---2---2-3-3-3-0-|-(0)-----0-3-3-2-0-|---------3-3-3-0-|-(0)-----0-3-3-2-0---|
|-3---------------|-------2-----------|-3---------------|-------2-------------|
|-----------------|-----3-------------|-----------------|-----3---------------|


                                                                To Dbl. Coda
  C       F     G             F         C       F     G             F
  E E E E E E E E   +E  E E E E E E E   E E E E E E E E   +E  E E E E E E E
|-----------------|-------------------|-----------------|---------------------|
|-------------1-0-|-(0)-------1-1-1-1-|-----1-------1-0-|-(0)-------1-1-1-1---|
|-----0---2-2-2-0-|-(0)-------2-2-0-0-|---0---0-2-2-2-0-|-(0)-------2-2-0-0---|
|---2---2-3-3-3-0-|-(0)-----0-3-3-2-0-|---------3-3-3-0-|-(0)-----0-3-3-2-0---|
|-3---------------|-------2-----------|-3---------------|-------2-------------|
|-----------------|-----3-------------|-----------------|-----3---------------|


  C       F     G             F         C       F
  E E E E E E E E   +E  E E E E E E E   E E E E E E E E   W
|-----------------|-------------------|-----------------|------||
|-------------1-0-|-(0)-------1-1-1-1-|-----1-------1-0-|------||
|-----0---2-2-2-0-|-(0)-------2-2-0-0-|---0---0-2-2-2-0-|------||
|---2---2-3-3-3-0-|-(0)-----0-3-3-2-0-|---------3-3-3-0-|------||
|-3---------------|-------2-----------|-3---------------|------||
|-----------------|-----3-------------|-----------------|------||


 2nd Verse
  C       F     G             F         C       F     G             F
  E E E E E E E E   +E  E E E E E E E   E E E E E E E E   +E  E E E E E E E
|-----------------|-------------------|-----------------|-------------------|
|-------------1-0-|-(0)-------1-1-1-1-|-----1-------1-0-|-(0)-------1-1-1-1-|
|-----0---2-2-2-0-|-(0)-------2-2-0-0-|---0---0-2-2-2-0-|-(0)-------2-2-0-0-|
|---2---2-3-3-3-0-|-(0)-----0-3-3-2-0-|---------3-3-3-0-|-(0)-----0-3-3-2-0-|
|-3---------------|-------2-----------|-3---------------|-------2-----------|
|-----------------|-----3-------------|-----------------|-----3-------------|


                                        Chorus
  C       F     G             F          C       F     G             F
  E E E E E E E E   +E  E E E E E E E    E E E E E E E E   +E  E E E E E E E
|-----------------|-------------------||-----------------|-------------------|
|-------------1-0-|-(0)-------1-1-1-1-||-----1-------1-0-|-(0)-------1-1-1-1-|
|-----0---2-2-2-0-|-(0)-------2-2-0-0-||---0---0-2-2-2-0-|-(0)-------2-2-0-0-|
|---2---2-3-3-3-0-|-(0)-----0-3-3-2-0-||---------3-3-3-0-|-(0)-----0-3-3-2-0-|
|-3---------------|-------2-----------||-3---------------|-------2-----------|
|-----------------|-----3-------------||-----------------|-----3-------------|


  C       F     G             F         C       F     G             F
  E E E E E E E E   +E  E E E E E E E   E E E E E E E E   +E  E E E E E E E
|-----------------|-------------------|-----------------|-------------------|
|-------------1-0-|-(0)-------1-1-1-1-|-----1-------1-0-|-(0)-------1-1-1-1-|
|-----0---2-2-2-0-|-(0)-------2-2-0-0-|---0---0-2-2-2-0-|-(0)-------2-2-0-0-|
|---2---2-3-3-3-0-|-(0)-----0-3-3-2-0-|---------3-3-3-0-|-(0)-----0-3-3-2-0-|
|-3---------------|-------2-----------|-3---------------|-------2-----------|
|-----------------|-----3-------------|-----------------|-----3-------------|


          D.S. al Coda       &
  C       F     G   N.C.        C       F     G             F
  E E E E E E E E   W           E E E E E E E E   +E  E E E E E E S S
|-----------------|----------||-----------------|----------------------||
|-------------1-0-|----------||-------------1-0-|-(0)-------1-1-1------||
|-----0---2-2-2-0-|----------||-----0---2-2-2-0-|-(0)-------2-2-0-0h2--||
|---2---2-3-3-3-0-|----------||---2---2-3-3-3-0-|-(0)-----0-3-3-2------||
|-3---------------|----------||-3---------------|-------2--------------||
|-----------------|----------||-----------------|-----3----------------||


 Guitar Solo
  N.C.
  +Q   E E E E E E   E E E E E E E E   E E E E H      +Q   E E E E E E
|------------------|-----------------|--------------|------------------|
|------------------|-----------------|--------------|------------------|
|-(2)--x-2-2-0-----|-0-2-0-------0-2-|-0-------0----|-(0)--------------|
|--------------3-2-|-------3-2-3-----|---3-2-3------|--------0-3-3-2-0-|
|------------------|-----------------|--------------|------2-----------|
|------------------|-----------------|--------------|------------------|


  E S S S S S S S S S S S S S S
|-------------------------------|
|-------------------------------|
|-------------------------------|
|-2-2-2-2-2-2-2-3-3-3-3-3-3-3-3-|
|-------------------------------|
|-------------------------------|


  E E E E S S S S S E S   S E S S S E S S S S S S S S
|-----------------------|-------------------------------|
|-----------------------|-------------------------------|
|-0---------------------|-0-2-0-2-2-0-2-2-0-2-2-0-2-0---|
|-------0-3-3-2-0-0h2---|-------------------------------|
|-----2-----------------|-------------------------------|
|---3-------------------|-------------------------------|


  S S S S S S S S E E E E   E E E E E Q  E   +W           Q  E E E E E E
|-------------------------|----------------|------------|----------------|
|-------------------------|----------------|------------|----------------|
|-2-0-0-2-0-0-2-0-0-------|-0-2-0--------0-|-(0)--------|------0-----2-0-|
|-------------------3-2-3-|-------3-2-3----|------------|----2---3-3-----|
|-------------------------|----------------|------------|-3--------------|
|-------------------------|----------------|------------|----------------|


  +E  E E E E E E S S   S S S S S S S S E S S S S S S   E E E E E E E E
|---------------------|-------------------------------|------------------|
|---------------------|-------------------------------|------------------|
|-(0)-0-0-0-0-0-0-0-2-|-2-2-2-2-0-2-2-0-2-0-2-0-2-2-0-|-2-0-------0-2-0--|
|---------------------|-------------------------------|-----3-2-3--------|
|---------------------|-------------------------------|------------------|
|---------------------|-------------------------------|------------------|


                           D.S.S. al Dbl. Coda
  Q  E E +E  E Q    Q.   E E E E E   e E Q  H
|-----------------|----------------|-------------||
|-----------------|----------------|-------------||
|-2--0------------|-0----0-0-0-0-0-|-0-----------||
|------3-(3)-2-3--|----------------|-------------||
|-----------------|----------------|-------------||
|-----------------|----------------|-------------||


  &&
  C       F     G             F         C       F     G             F
  E E E E E E E E   +E  E E E E E E E   E E E E E E E E   +E  E E E E E E E
|-----------------|-------------------|-----------------|-------------------||
|-----1-------1-0-|-(0)-------1-1-1-1-|-------------1-0-|-(0)-------1-1-1-1-||
|---0---0-2-2-2-0-|-(0)-------2-2-0-0-|-----0---2-2-2-0-|-(0)-------2-2-0-0-||
|---------3-3-3-0-|-(0)-----0-3-3-2-0-|---2---2-3-3-3-0-|-(0)-----0-3-3-2-0-||
|-3---------------|-------2-----------|-3---------------|-------2-----------||
|-----------------|-----3-------------|-----------------|-----3-------------||


 Outro
  C       F     G             F         C       F     G             F
  E E E E E E E E   +E  E E E E E E E   E E E E E E E E   +E  E E E E E E E
|-----------------|-------------------|-----------------|-------------------|
|-----1-------1-0-|-(0)-------1-1-1-1-|-------------1-0-|-(0)-------1-1-1-1-|
|---0---0-2-2-2-0-|-(0)-------2-2-0-0-|-----0---2-2-2-0-|-(0)-------2-2-0-0-|
|---------3-3-3-0-|-(0)-----0-3-3-2-0-|---2---2-3-3-3-0-|-(0)-----0-3-3-2-0-|
|-3---------------|-------2-----------|-3---------------|-------2-----------|
|-----------------|-----3-------------|-----------------|-----3-------------|


  C       F     G             F         C       F     G             F
  E E E E E E E E   +E  E E E E E E E   E E E E E E E E   +E  E E E E E E E
|-----------------|-------------------|-----------------|-------------------*|
|-----1-------1-0-|-(0)-------1-1-1-1-|-------------1-0-|-(0)-------1-1-1-1-*|
|---0---0-2-2-2-0-|-(0)-------2-2-0-0-|-----0---2-2-2-0-|-(0)-------2-2-0-0-*|
|---------3-3-3-0-|-(0)-----0-3-3-2-0-|---2---2-3-3-3-0-|-(0)-----0-3-3-2-0-*|
|-3---------------|-------2-----------|-3---------------|-------2-----------*|
|-----------------|-----3-------------|-----------------|-----3-------------*|            
Submit corrections


        La Bamba lessons Hard to play? Try these video lessons and learn fast La Bamba lessons
        
↑ Back to top | Tablatures and chords for acoustic guitar and electric guitar, ukulele, drums are parodies/interpretations of the original songs. You may use it for private study, scholarship, research or language learning purposes only