» » »

Rise Against - Tabs

Artists:  A B C D E F G H I J K L M N O P Q R S T U V W X Y Z # 

Tabs

(ver. 5) Click to play this song!
Rise Against
 Rating:
4.2/5 (30 votes)

  lessons Tabs too difficult? Try these video lessons and learn fast
 
                
[Intro]
4/4
  Gtr 1
     Q   E E Q   E E      Q   E E E  E  Q           E  E  E  E  E  E  E  E       E  E  E  E  E  E  E  E
eb|--------------------|-------------------------|----------------------------|----------------------------|
Bb|o-------------------|-------------------------|----------------------------|----------------------------|
Gb|--9-----------------|--9-------11-11-11-------|--12-12-12-12-12-12-12-12---|----------------------------|
Db|--9-------2---------|--9-------11-11-11-------|--12-12-12-12-12-12-12-12---|--12-12-12-12-9--9--9--9----|
Ab|o-7-------2---------|--7-------9--9--9--------|--10-10-10-10-10-10-10-10---|--12-12-12-12-9--9--9--9----|
Eb|------0-0-0---0-0---|------0-0----------------|----------------------------|--10-10-10-10-7--7--7--7----|
PM|      . .     . .   |      . .                |                            |                            |
  |Gtr 2               |                         |                            |                            |
  |  Q   E E Q   E E   |  Q   E E E  E  Q        |  E  E  E  E  E  E  E  E    |  E  E  E  E  E  E  E  E    |
eb|--------------------|-------------------------|----------------------------|----------------------------|
Bb|o-------------------|-------------------------|----------------------------|----------------------------|
Gb|--9-----------------|--9-------16-15-16-------|--12-12-12-12-12-12-12-12---|--14-14-14-14-11-11-11-11---|
Db|--9-------2---------|--9-------x--x--x--------|--x--x--x--x--x--x--x--x----|--x--x--x--x--x--x--x--x----|
Ab|o-7-------2---------|--7-------14-13-14-------|--10-10-10-10-10-10-10-10---|--12-12-12-12-9--9--9--9----|
Eb|------0-0-0---0-0---|------0-0----------------|----------------------------|----------------------------|
PM|      . .     . .   |      . .                |                            |                            |

     Q   E E Q   E E      Q   E E E  E  Q           E  E  E  E  E  E  E  E       E  E  E  E  E E E E   (x2)
eb|--------------------|-------------------------|----------------------------|------------------------|
Bb|--------------------|-------------------------|----------------------------|-----------------------o|
Gb|--9-----------------|--9-------11-11-11-------|--12-12-12-12-12-12-12-12---|------------------------|
Db|--9-------2---------|--9-------11-11-11-------|--12-12-12-12-12-12-12-12---|--12-12-12-12-9-9-9-9---|
Ab|--7-------2---------|--7-------9--9--9--------|--10-10-10-10-10-10-10-10---|--12-12-12-12-9-9-9-9--o|
Eb|------0-0-0---0-0---|------0-0----------------|----------------------------|--10-10-10-10-7-7-7-7---|
PM|      . .     . .   |      . .                |                            |                        |
  |                    |                         |                            |                        |
  |  Q   E E Q   E E   |  Q   E E E  E  Q        |  E  E  E  E  E  E  E  E    |  E  E  E  E  E E E E   |
eb|--------------------|-------------------------|----------------------------|------------------------|
Bb|--------------------|-------------------------|----------------------------|-----------------------o|
Gb|--9-----------------|--9-------16-15-16-------|--12-12-12-12-12-12-12-12---|--11-11-11-11-8-8-8-8---|
Db|--9-------2---------|--9-------x--x--x--------|--x--x--x--x--x--x--x--x----|--x--x--x--x--x-x-x-x---|
Ab|--7-------2---------|--7-------14-13-14-------|--10-10-10-10-10-10-10-10---|--9--9--9--9--6-6-6-6--o|
Eb|------0-0-0---0-0---|------0-0----------------|----------------------------|------------------------|
PM|      . .     . .   |      . .                |                            |                        |

     W                                   +W
eb|------------------------------------|------------------------------------|
Bb|------------------------------------|------------------------------------|
Gb|--9---------------------------------|------------------------------------|
Db|--9---------------------------------|------------------------------------|
Ab|--7---------------------------------|------------------------------------|
Eb|--0---------------------------------|------------------------------------|
  |                                    |                                    |
  |  W                                 | +H.                      E   E     |
eb|------------------------------------|------------------------------------|
Bb|------------------------------------|------------------------------------|
Gb|--9---------------------------------|------------------------------7-----|
Db|--x---------------------------------|--------------------------7---7-----|
Ab|--7---------------------------------|--------------------------7---5-----|
Eb|------------------------------------|--------------------------5---------|

   Gtr 2
     E   S E   S E   E   S E   S E        E   S E   S E   Q       E   E
eb|------------------------------------|------------------------------------|
Bb|------------------------------------|------------------------------------|
Gb|--9---9-9---9-9---9---9-9---9-9-----|--5---5-5---5-5---5-----------7-----|
Db|--9---9-9---9-9---9---9-9---9-9-----|--5---5-5---5-5---5-------7---7-----|
Ab|--7---7-7---7-7---7---7-7---7-7-----|--3---3-3---3-3---3-------7---5-----|
Eb|------------------------------------|--------------------------5---------|

     E   S E   S E   E   S E   S E        E    S  E    S  E    Q       E   E
eb|------------------------------------|-----------------------------------------|
Bb|------------------------------------|-----------------------------------------|
Gb|--9---9-9---9-9---9---9-9---9-9-----|--12---12-12---12-12---12----------7-----|
Db|--9---9-9---9-9---9---9-9---9-9-----|--12---12-12---12-12---12------7---7-----|
Ab|--7---7-7---7-7---7---7-7---7-7-----|--10---10-10---10-10---10------7---5-----|
Eb|------------------------------------|-------------------------------5---------|

     E   S E   S E   E   S E   S E        E   S E   S E   Q       E   E
eb|------------------------------------|------------------------------------|
Bb|------------------------------------|------------------------------------|
Gb|--9---9-9---9-9---9---9-9---9-9-----|--5---5-5---5-5---5-----------7-----|
Db|--9---9-9---9-9---9---9-9---9-9-----|--5---5-5---5-5---5-------7---7-----|
Ab|--7---7-7---7-7---7---7-7---7-7-----|--3---3-3---3-3---3-------7---5-----|
Eb|------------------------------------|--------------------------5---------|

   Gtr 1 & 2
     E   S S S S S S S S S S S S S S      S S S S S S S S S S S S E   E
eb|------------------------------------|------------------------------------|
Bb|------------------------------------|------------------------------------|
Gb|--7---------------------------------|------------------------------7-----|
Db|--7---7-7-7-7-7-7-7-7-7-7-7-7-7-7---|--7-7-7-7-7-7-7-7-7-7-7-7-7---7-----|
Ab|--5---5-5-5-5-5-5-5-5-5-5-5-5-5-5---|--5-5-5-5-5-5-5-5-5-5-5-5-7---5-----|
Eb|------------------------------------|--------------------------5---------|
PM|  .   . . . . . . . . . . . . . .   |  . . . . . . . . . . . .           |


[Verse] Both verses are the same
   Gtr 1 & 2
     E   S E   S E   E   S E   S E        E   S E   S E   Q       E   E
eb|------------------------------------|------------------------------------|
Bb|------------------------------------|------------------------------------|
Gb|--9---9-9---9-9---9---9-9---9-9-----|--5---5-5---5-5---5-----------7-----|
Db|--9---9-9---9-9---9---9-9---9-9-----|--5---5-5---5-5---5-------7---7-----|
Ab|--7---7-7---7-7---7---7-7---7-7-----|--3---3-3---3-3---3-------7---5-----|
Eb|------------------------------------|--------------------------5---------|

     E   S E   S E   E   S E   S E        E    S  E    S  E    Q       E   E
eb|------------------------------------|-----------------------------------------|
Bb|------------------------------------|-----------------------------------------|
Gb|--9---9-9---9-9---9---9-9---9-9-----|--12---12-12---12-12---12----------7-----|
Db|--9---9-9---9-9---9---9-9---9-9-----|--12---12-12---12-12---12------7---7-----|
Ab|--7---7-7---7-7---7---7-7---7-7-----|--10---10-10---10-10---10------7---5-----|
Eb|------------------------------------|-------------------------------5---------|

     E   S E   S E   E   S E   S E        E   S E   S E   Q       E   E
eb|------------------------------------|------------------------------------|
Bb|------------------------------------|------------------------------------|
Gb|--9---9-9---9-9---9---9-9---9-9-----|--5---5-5---5-5---5-----------7-----|
Db|--9---9-9---9-9---9---9-9---9-9-----|--5---5-5---5-5---5-------7---7-----|
Ab|--7---7-7---7-7---7---7-7---7-7-----|--3---3-3---3-3---3-------7---5-----|
Eb|------------------------------------|--------------------------5---------|

     E   S E   S E   E   S E   S E        E   S E   S E   Q       E   E
eb|------------------------------------|------------------------------------|
Bb|------------------------------------|------------------------------------|
Gb|--7---7-7---7-7---7---7-7---7-7-----|--7---7-7---7-7---7-----------7-----|
Db|--7---7-7---7-7---7---7-7---7-7-----|--7---7-7---7-7---7-------7---7-----|
Ab|--5---5-5---5-5---5---5-5---5-5-----|--5---5-5---5-5---5-------7---5-----|
Eb|------------------------------------|--------------------------5---------|

     E   S E   S E   E   S E   S E        E   S E   S E   Q       E   E
eb|------------------------------------|------------------------------------|
Bb|------------------------------------|------------------------------------|
Gb|--9---9-9---9-9---9---9-9---9-9-----|--5---5-5---5-5---5-----------7-----|
Db|--9---9-9---9-9---9---9-9---9-9-----|--5---5-5---5-5---5-------7---7-----|
Ab|--7---7-7---7-7---7---7-7---7-7-----|--3---3-3---3-3---3-------7---5-----|
Eb|------------------------------------|--------------------------5---------|

     E   S E   S E   E   S E   S E        E    S  E    S  E    Q       E   E
eb|------------------------------------|-----------------------------------------|
Bb|------------------------------------|-----------------------------------------|
Gb|--9---9-9---9-9---9---9-9---9-9-----|--12---12-12---12-12---12----------7-----|
Db|--9---9-9---9-9---9---9-9---9-9-----|--12---12-12---12-12---12------7---7-----|
Ab|--7---7-7---7-7---7---7-7---7-7-----|--10---10-10---10-10---10------7---5-----|
Eb|------------------------------------|-------------------------------5---------|

     E   S E   S E   E   S E   S E        E   S E   S E   Q       E   E
eb|------------------------------------|------------------------------------|
Bb|------------------------------------|------------------------------------|
Gb|--9---9-9---9-9---9---9-9---9-9-----|--5---5-5---5-5---5-----------7-----|
Db|--9---9-9---9-9---9---9-9---9-9-----|--5---5-5---5-5---5-------7---7-----|
Ab|--7---7-7---7-7---7---7-7---7-7-----|--3---3-3---3-3---3-------7---5-----|
Eb|------------------------------------|--------------------------5---------|

     E   S E   S E   E   S E   S E        E   S E   S E   E   S E   S E
eb|------------------------------------|------------------------------------|
Bb|------------------------------------|------------------------------------|
Gb|--7---7-7---7-7---7---7-7---7-7-----|------------------------------------|
Db|--7---7-7---7-7---7---7-7---7-7-----|------------------------------------|
Ab|--5---5-5---5-5---5---5-5---5-5-----|------------------------------------|
Eb|------------------------------------|--5---7-7---7-7---5---7-7---7-7-----|

     E   S E   S E   E   E   E   E
eb|------------------------------------|
Bb|------------------------------------|
Gb|------------------------------------| [The last 4 notes are only played
Db|------------------------------------|           by Guitar 2]
Ab|------------------------------------|
Eb|--5---7-7---7-7---7---5---3---2-----|


[Chorus] Both choruses are the same
   Gtr 1
     E    S  E    S  E    S   S   S   S        E    S  E    S  E    S   S   S   S
eb|-----------------------------------------|-----------------------------------------|
Bb|o----------------------------------------|-----------------------------------------|
Gb|--12---12-12---12-12---12--12--11--11----|--12---12-12---12-12---12--12--11--11----|
Db|--x----x--x----x--x----x---x---x---x-----|--x----x--x----x--x----x---x---x---x-----|
Ab|o-10---10-10---10-10---10--10--9---9-----|--10---10-10---10-10---10--10--9---9-----|
Eb|-----------------------------------------|-----------------------------------------|
  |                                         |                                         |
  |Gtr 2                                    |                                         |
  |  E    S  E    S  E    E   S E   S E     |  E    S  E    S  E    E   S E   S E     |
eb|-----------------------------------------|-----------------------------------------|
Bb|o----------------------------------------|-----------------------------------------|
Gb|-----------------------------------------|--5----5--5----5--5----5---5-5---5-5-----|
Db|--2----2--2----2--2----2---2-2---2-2-----|--5----5--5----5--5----5---5-5---5-5-----|
Ab|o-2----2--2----2--2----2---2-2---2-2-----|--3----3--3----3--3----3---3-3---3-3-----|
Eb|--0----0--0----0--0----0---0-0---0-0-----|-----------------------------------------|

     E    S  E    S  E    S   S   S   S        E   S E   S E   S   S   S   S
eb|-----------------------------------------|------------------------------------|
Bb|-----------------------------------------|------------------------------------|
Gb|--12---12-12---12-12---12--12--11--11----|--7---7-7---7-7---7---7---7---7-----|
Db|--x----x--x----x--x----x---x---x---x-----|--x---x-x---x-x---x---x---x---x-----|
Ab|--10---10-10---10-10---10--10--9---9-----|--5---5-5---5-5---5---5---5---5-----|
Eb|-----------------------------------------|------------------------------------|
  |                                         |                                    |
  |Gtr 2                                    |                                    |
  |  E    S  E    S  E    E   S E   S E     |  E   S E   S E   E   S E   S E     |
eb|-----------------------------------------|------------------------------------|
Bb|-----------------------------------------|------------------------------------|
Gb|-----------------------------------------|--4---4-4---4-4---4---4-4---4-4-----|
Db|--5----5--5----5--5----5---5-5---5-5-----|--4---4-4---4-4---4---4-4---4-4-----|
Ab|--5----5--5----5--5----5---5-5---5-5-----|--2---2-2---2-2---2---2-2---2-2-----|
Eb|--3----3--3----3--3----3---3-3---3-3-----|------------------------------------|

     E    S  E    S  E    S   S   S   S        E    S  E    S  E    S   S   S   S
eb|-----------------------------------------|-----------------------------------------|
Bb|-----------------------------------------|-----------------------------------------|
Gb|--12---12-12---12-12---12--12--11--11----|--12---12-12---12-12---12--12--11--11----|
Db|--x----x--x----x--x----x---x---x---x-----|--x----x--x----x--x----x---x---x---x-----|
Ab|--10---10-10---10-10---10--10--9---9-----|--10---10-10---10-10---10--10--9---9-----|
Eb|-----------------------------------------|-----------------------------------------|
  |                                         |                                         |
  |Gtr 2                                    |                                         |
  |  E    S  E    S  E    E   S E   S E     |  E    S  E    S  E    E   S E   S E     |
eb|-----------------------------------------|-----------------------------------------|
Bb|-----------------------------------------|-----------------------------------------|
Gb|-----------------------------------------|--5----5--5----5--5----5---5-5---5-5-----|
Db|--2----2--2----2--2----2---2-2---2-2-----|--5----5--5----5--5----5---5-5---5-5-----|
Ab|--2----2--2----2--2----2---2-2---2-2-----|--3----3--3----3--3----3---3-3---3-3-----|
Eb|--0----0--0----0--0----0---0-0---0-0-----|-----------------------------------------|

     E    S  E    S  E    S   S   S   S        S   S   S   S   S   S   S   S     (x2)
eb|-----------------------------------------|------------------------------------|
Bb|-----------------------------------------|-----------------------------------o|
Gb|--12---12-12---12-12---12--12--16--16----|--14--14--11--11--12--12--11--11----|
Db|--x----x--x----x--x----x---x---x---x-----|--x---x---x---x---x---x---x---x-----|
Ab|--10---10-10---10-10---10--10--14--14----|--12--12--9---9---10--10--9---9----o|
Eb|-----------------------------------------|------------------------------------|
  |                                         |                                    |
  |Gtr 2                                    |                                    |
  |  E    S  E    S  E    E   S E   S E     |  E   S E   S E   E   S E   S E     |
eb|-----------------------------------------|------------------------------------|
Bb|-----------------------------------------|-----------------------------------o|
Gb|-----------------------------------------|--4---4-4---4-4---4---4-4---4-4-----|
Db|--5----5--5----5--5----5---5-5---5-5-----|--4---4-4---4-4---4---4-4---4-4-----|
Ab|--5----5--5----5--5----5---5-5---5-5-----|--2---2-2---2-2---2---2-2---2-2----o|
Eb|--3----3--3----3--3----3---3-3---3-3-----|------------------------------------|


[Post-Chorus] This is only played after the first chorus
   Gtr 1
     W                                   +W
eb|------------------------------------|------------------------------------|
Bb|------------------------------------|------------------------------------|
Gb|--9---------------------------------|------------------------------------|
Db|--x---------------------------------|------------------------------------|
Ab|--7---------------------------------|------------------------------------|
Eb|------------------------------------|------------------------------------|
  |                                    |                                    |
  |Gtr 2                               |                                    |
  |  W                                 | +H.                      E   E     |
eb|------------------------------------|------------------------------------|
Bb|------------------------------------|------------------------------------|
Gb|------------------------------------|------------------------------7-----|
Db|--2---------------------------------|--------------------------7---7-----|
Ab|--2---------------------------------|--------------------------7---5-----|
Eb|--0---------------------------------|--------------------------5---------|

   Gtr 2
     E   S E   S E   E   S E   S E        E   S E   S E   Q       E   E
eb|------------------------------------|------------------------------------|
Bb|------------------------------------|------------------------------------|
Gb|--9---9-9---9-9---9---9-9---9-9-----|--5---5-5---5-5---5-----------7-----|
Db|--9---9-9---9-9---9---9-9---9-9-----|--5---5-5---5-5---5-------7---7-----|
Ab|--7---7-7---7-7---7---7-7---7-7-----|--3---3-3---3-3---3-------7---5-----|
Eb|------------------------------------|--------------------------5---------|

     E   S E   S E   E   S E   S E        E    S  E    S  E    Q       E   E
eb|------------------------------------|-----------------------------------------|
Bb|------------------------------------|-----------------------------------------|
Gb|--9---9-9---9-9---9---9-9---9-9-----|--12---12-12---12-12---12----------7-----|
Db|--9---9-9---9-9---9---9-9---9-9-----|--12---12-12---12-12---12------7---7-----|
Ab|--7---7-7---7-7---7---7-7---7-7-----|--10---10-10---10-10---10------7---5-----|
Eb|------------------------------------|-------------------------------5---------|

     E   S E   S E   E   S E   S E        E   S E   S E   Q       E   E
eb|------------------------------------|------------------------------------|
Bb|------------------------------------|------------------------------------|
Gb|--9---9-9---9-9---9---9-9---9-9-----|--5---5-5---5-5---5-----------7-----|
Db|--9---9-9---9-9---9---9-9---9-9-----|--5---5-5---5-5---5-------7---7-----|
Ab|--7---7-7---7-7---7---7-7---7-7-----|--3---3-3---3-3---3-------7---5-----|
Eb|------------------------------------|--------------------------5---------|

   Gtr 1 & 2
     E   S S S S S S S S S S S S S S      S S S S S S S S S S S S E   E
eb|------------------------------------|------------------------------------|
Bb|------------------------------------|------------------------------------|
Gb|--7---------------------------------|------------------------------7-----|
Db|--7---7-7-7-7-7-7-7-7-7-7-7-7-7-7---|--7-7-7-7-7-7-7-7-7-7-7-7-7---7-----|
Ab|--5---5-5-5-5-5-5-5-5-5-5-5-5-5-5---|--5-5-5-5-5-5-5-5-5-5-5-5-7---5-----|
Eb|------------------------------------|--------------------------5---------|
PM|  .   . . . . . . . . . . . . . .   |  . . . . . . . . . . . .           |


[Interlude]
   Gtr 1
     W                     +W                   +W                     +W
eb|----------------------|--------------------|----------------------|--------------------|
Bb|----------------------|--------------------|----------------------|--------------------|
Gb|--9-------------------|--------------------|----------------------|--------------------|
Db|--x-------------------|--------------------|----------------------|--------------------|
Ab|--7-------------------|--------------------|----------------------|--------------------|
Eb|----------------------|--------------------|----------------------|--------------------|
  |                      |                    |                      |                    |
  |Gtr 2                 |                    |                      |                    |
  |  E E E  E  E E E E   |  E E E E E E E E   |  E E E  E  E E E E   |  E E E E E E E E   |
eb|----------------------|--------------------|----------------------|--------------------|
Bb|----------------------|--------------------|----------------------|--------------------|
Bb|----------------------|--------------------|----------------------|--------------------|
Db|--9-9-10-10-9-9-7-7---|--5-5-7-7-5-5-4-4---|--9-9-10-10-9-9-7-7---|--5-5-7-7-4-4-4-4---|
Ab|--7-7-7--7--7-7-7-7---|--7-7-7-7-7-7-5-5---|--7-7-7--7--7-7-7-7---|--7-7-7-7-5-5-5-5---|
Eb|----------------------|--------------------|----------------------|--------------------|
PM|  . . .  .  . . . .   |  . . . . . . . .   |  . . .  .  . . . .   |  . . . . . . . .   |

     W                     +W                    E E E E E E E E      E E E E E E E E
eb|----------------------|--------------------|--------------------|--------------------|
Bb|----------------------|--------------------|--------------------|--------------------|
Gb|--9-------------------|--------------------|--5-5-5-5-5-5-5-5---|--7-7-7-7-7-7-7-7---|
Db|--9-------------------|--------------------|--5-5-5-5-5-5-5-5---|--7-7-7-7-7-7-7-7---|
Ab|--7-------------------|--------------------|--3-3-3-3-3-3-3-3---|--5-5-5-5-5-5-5-5---|
Eb|--0-------------------|--------------------|--------------------|--------------------|
  |                      |                    |                    |                    |
  |  E E E  E  E E E E   |  E E E E E E E E   |  E E E E E E E E   |  E E E E E E E E   |
eb|----------------------|--------------------|--------------------|--------------------|
Bb|----------------------|--------------------|--------------------|--------------------|
Bb|----------------------|--------------------|--5-5-5-5-5-5-5-5---|--7-7-7-7-7-7-7-7---|
Db|--9-9-10-10-9-9-7-7---|--5-5-7-7-5-5-4-4---|--5-5-5-5-5-5-5-5---|--7-7-7-7-7-7-7-7---|
Ab|--7-7-7--7--7-7-7-7---|--7-7-7-7-7-7-5-5---|--3-3-3-3-3-3-3-3---|--5-5-5-5-5-5-5-5---|
Eb|----------------------|--------------------|--------------------|--------------------|
PM|  . . .  .  . . . .   |  . . . . . . . .   |                    |                    |

   Gtr 1 & 2
     E E E  E  E E E E      E E E E E E E E      E E E  E  E E E E      E E E E E E E E    
eb|----------------------|--------------------|----------------------|--------------------|
Bb|----------------------|--------------------|----------------------|--------------------|
Bb|----------------------|--------------------|----------------------|--------------------|
Db|--9-9-10-10-9-9-7-7---|--5-5-7-7-5-5-4-4---|--9-9-10-10-9-9-7-7---|--5-5-7-7-4-4-4-4---|
Ab|--7-7-7--7--7-7-7-7---|--7-7-7-7-7-7-5-5---|--7-7-7--7--7-7-7-7---|--7-7-7-7-5-5-5-5---|
Eb|----------------------|--------------------|----------------------|--------------------|
PM|  . . .  .  . . . .   |  . . . . . . . .   |  . . .  .  . . . .   |  . . . . . . . .   |

     E E E  E  E E E E      E E E E E E E E      E E E E E E E E      E E E E E E E E    
eb|----------------------|--------------------|--------------------|--------------------|
Bb|----------------------|--------------------|--------------------|--------------------|
Bb|----------------------|--------------------|--5-5-5-5-5-5-5-5---|--7-7-7-7-7-7-7-7---|
Db|--9-9-10-10-9-9-7-7---|--5-5-7-7-5-5-4-4---|--5-5-5-5-5-5-5-5---|--7-7-7-7-7-7-7-7---|
Ab|--7-7-7--7--7-7-7-7---|--7-7-7-7-7-7-5-5---|--3-3-3-3-3-3-3-3---|--5-5-5-5-5-5-5-5---|
Eb|----------------------|--------------------|--------------------|--------------------|
PM|  . . .  .  . . . .   |  . . . . . . . .   |                    |                    |

     W                   +W
eb|--------------------|--------------------|
Bb|--------------------|--------------------|
Gb|--9-----------------|--------------------|
Db|--9-----------------|--------------------|
Ab|--7-----------------|--------------------|
Eb|--------------------|--------------------|


[Guitar Solo]
   Gtr 1
     E    S  E    S  E     E    S  E    S  E          E     S E   S E   E   S E   S E
eb|------------------------------------------------|--------------------------------------|
Bb|------------------------------------------------|--------------------------------------|
Gb|--9----9--9----9--9-----9----9--9----9--9-------|--5-----5-5---5-5---5---5-5---5-5-----|
Db|--9----9--9----9--9-----9----9--9----9--9-------|--5-----5-5---5-5---5---5-5---5-5-----|
Ab|--7----7--7----7--7-----7----7--7----7--7-------|--3-----3-3---3-3---3---3-3---3-3-----|
Eb|------------------------------------------------|--------------------------------------|
  |                                                |                                      |
  |Gtr 2                                           |                                      |
  |  E.      E.      E     E.      E.      E       |  S  S  Q       E   H                 |
eb|--12------12------12----12------12------12------|--------------------------------------|
Bb|--15b17---15b17---15b17-15b17---15b17---15b17---|--15b17r15------13--12~---------------|
Gb|------------------------------------------------|--------------------------------------|
Db|------------------------------------------------|--------------------------------------|
Ab|------------------------------------------------|--------------------------------------|
Eb|------------------------------------------------|--------------------------------------|

     E   S E   S E   E     S E   S E        E    S  E    S  E    E     S  E    S  E
eb|--------------------------------------|----------------------------------------------|
Bb|--------------------------------------|----------------------------------------------|
Gb|--9---9-9---9-9---9-----9-9---9-9-----|--12---12-12---12-12---12----12-12---12-12----|
Db|--9---9-9---9-9---9-----9-9---9-9-----|--12---12-12---12-12---12----12-12---12-12----|
Ab|--7---7-7---7-7---7-----7-7---7-7-----|--10---10-10---10-10---10----10-10---10-10----|
Eb|--------------------------------------|----------------------------------------------|
  |                                      |                                              |
  |  H               S  S  Q       E     |  H                    S  S  Q          E     |
eb|--------------------------------------|----------------------------------------------|
Bb|--13--------------12h13p12------------|--13-------------------12h13p12---------12----|
Gb|--------------------------------14----|----------------------------------------------|
Db|--------------------------------------|----------------------------------------------|
Ab|--------------------------------------|----------------------------------------------|
Eb|--------------------------------------|----------------------------------------------|

     E   S E   S E   E   S E   S E        E   S E   S E   E   S E   S E
eb|------------------------------------|------------------------------------|
Bb|------------------------------------|------------------------------------|
Gb|--9---9-9---9-9---9---9-9---9-9-----|--5---5-5---5-5---5---5-5---5-5-----|
Db|--9---9-9---9-9---9---9-9---9-9-----|--5---5-5---5-5---5---5-5---5-5-----|
Ab|--7---7-7---7-7---7---7-7---7-7-----|--3---3-3---3-3---3---3-3---3-3-----|
Eb|------------------------------------|------------------------------------|
  |                                    |                                    |
  |  E.    S+Q       H                 |  H               E.    E.    E     |
eb|------------------------------------|------------------------------------|
Bb|------------------------------------|------------------13----12----------|
Gb|--12----12--------11~---------------|--12~-------------------------14----|
Db|--14----14--------------------------|------------------------------------|
Ab|------------------------------------|------------------------------------|
Eb|------------------------------------|------------------------------------|

     E   S E   S E   E   S E   S E        E   S E   S E   E   S E   S E
eb|------------------------------------|------------------------------------|
Bb|------------------------------------|------------------------------------|
Gb|--7---7-7---7-7---7---7-7---7-7-----|--7---7-7---7-7---7---7-7---7-7-----|
Db|--7---7-7---7-7---7---7-7---7-7-----|--7---7-7---7-7---7---7-7---7-7-----|
Ab|--5---5-5---5-5---5---5-5---5-5-----|--5---5-5---5-5---5---5-5---5-5-----|
Eb|------------------------------------|------------------------------------|
  |                                    |                                    |
  |  W                                 |  H               H                 |
eb|------------------------------------|------------------------------------|
Bb|--12--------------------------------|------------------------------------|
Gb|--12--------------------------------|--12--------------11----------------|
Db|------------------------------------|--14--------------12----------------|
Ab|------------------------------------|------------------------------------|
Eb|------------------------------------|------------------------------------|

     E   S E   S E   E   S E   S E        E   S E   S E   E   S E   S E
eb|--------------------------------------|------------------------------------|
Bb|--------------------------------------|------------------------------------|
Gb|--9---9-9---9-9---9---9-9---9-9-------|--5---5-5---5-5---5---5-5---5-5-----|
Db|--9---9-9---9-9---9---9-9---9-9-------|--5---5-5---5-5---5---5-5---5-5-----|
Ab|--7---7-7---7-7---7---7-7---7-7-------|--3---3-3---3-3---3---3-3---3-3-----|
Eb|--------------------------------------|------------------------------------|
  |                                      |                                    |
  |  E.    E.    E   E.    E.    S  S    |  E.    E.    S   E  (Q.)           |
eb|------------------15----------15-14---|--15b17-15----14--15----------------|
Bb|--15b17=17====17========17------------|------------------------------------|
Gb|--------------------------------------|------------------------------------|
Db|--------------------------------------|------------------------------------|
Ab|--------------------------------------|------------------------------------|
Eb|--------------------------------------|------------------------------------|

     E    S  E     S E   E   S E   S E        E    S  E    S  E    E    S  E    S  E
eb|----------------------------------------|---------------------------------------------|
Bb|----------------------------------------|---------------------------------------------|
Gb|--9----9--9-----9-9---9---9-9---9-9-----|--12---12-12---12-12---12---12-12---12-12----|
Db|--9----9--9-----9-9---9---9-9---9-9-----|--12---12-12---12-12---12---12-12---12-12----|
Ab|--7----7--7-----7-7---7---7-7---7-7-----|--10---10-10---10-10---10---10-10---10-10----|
Eb|----------------------------------------|---------------------------------------------|
  |                                        |                                             |
  |                                        |                       |------3------|       |
  | (E)   S  S  E    E   E   E   E   E     |  E.      E.      E    Q      Q      Q       |
eb|-------15b17r15---14--15--14--12--14----|--15------15b17==r15---14-----12-------------|
Bb|----------------------------------------|-------------------------------------15------|
Gb|----------------------------------------|---------------------------------------------|
Db|----------------------------------------|---------------------------------------------|
Ab|----------------------------------------|---------------------------------------------|
Eb|----------------------------------------|---------------------------------------------|

     E    S E   S E   E    S E   S E        E    S E   S E   E    S E   S E
eb|--------------------------------------|--------------------------------------|
Bb|--------------------------------------|--------------------------------------|
Gb|--9----9-9---9-9---9----9-9---9-9-----|--5----5-5---5-5---5----5-5---5-5-----|
Db|--9----9-9---9-9---9----9-9---9-9-----|--5----5-5---5-5---5----5-5---5-5-----|
Ab|--7----7-7---7-7---7----7-7---7-7-----|--3----3-3---3-3---3----3-3---3-3-----|
Eb|--------------------------------------|--------------------------------------|
  |                                      |                                      |
  |  |--3--|          |--3--|            |  |--3--|          |--3--|            |
  |  E  E  E  Q       E  E  E  Q         |  E  E  E  Q       E  E  E  Q         |
eb|--------------------------------------|--------------------------------------|
Bb|--12h13p12-========12h13p12=========--|-=12h13p12=========12h13p12=========--|
Gb|-----------14b16------------14b16-----|-----------14b16------------14b16-----|
Db|--------------------------------------|--------------------------------------|
Ab|--------------------------------------|--------------------------------------|
Eb|--------------------------------------|--------------------------------------|

     E   S E   S E   E   S E   S E        E   S E   S E   E   S E   S E
eb|------------------------------------|------------------------------------|
Bb|------------------------------------|------------------------------------|
Gb|--7---7-7---7-7---7---7-7---7-7-----|------------------------------------|
Db|--7---7-7---7-7---7---7-7---7-7-----|------------------------------------|
Ab|--5---5-5---5-5---5---5-5---5-5-----|------------------------------------|
Eb|------------------------------------|--5---7-7---7-7---5---7-7---7-7-----|
  |                                    |                                    |
  |  H.                      E   E     |  H               H                 |
eb|------------------------------------|------------------------------------|
Bb|------------------------------------|------------------------------------|
Gb|--12----------------------14--12----|--11--------------------------------|
Db|--14--------------------------------|--12--------------9-----------------|
Ab|------------------------------------|------------------------------------|
Eb|------------------------------------|------------------------------------|

     -
eb|------------------------------------||
Bb|------------------------------------||
Gb|------------------------------------||
Db|--2---------------------------------||
Ab|--2---------------------------------||
Eb|--0---------------------------------||
  |                                    ||
  |  -                                 ||
eb|------------------------------------||
Bb|------------------------------------||
Gb|--9---------------------------------||
Db|--9---------------------------------||
Ab|------------------------------------||
Eb|------------------------------------||            
Submit corrections


         lessons Hard to play? Try these video lessons and learn fast  lessons
        
↑ Back to top | Tablatures and chords for acoustic guitar and electric guitar, ukulele, drums are parodies/interpretations of the original songs. You may use it for private study, scholarship, research or language learning purposes only