» » »

Ringo Starr - Six Oclock Tabs

Artists:  A B C D E F G H I J K L M N O P Q R S T U V W X Y Z # 

Six Oclock Tabs

(ver. 1) Click to play this song!
Ringo Starr
 Rating:
4.3/5 (15 votes)

 Six Oclock  lessons Tabs too difficult? Try these video lessons and learn fast
 
                [Intro]
G|---------------------------------|---------------------------------|
D|---------------------------------|---------------------------------|
A|---------------------------------|---------------------------------|
E|3--------------------------------|3--------------------------------|

[Verse]
G|---------------------------------|---------------------------------|
D|---------------------------------|---------------------------------|
A|3--------------------------------|5--------------------------------|
E|----------------5----------------|---------------------------------|

G|---------------------------------|---------------------------------|
D|---------------------------------|---------------------------------|
A|---------------------------------|3--------------------------------|
E|3--------------------------------|----------------3----------------|

G|---------------------------------|---------------------------------|
D|---------------------------------|---------------------------------|
A|3--------------------------------|5--------------------------------|
E|----------------5----------------|----------------------------1-/--|

[Pre-Chorus]
G|---------------------------------|---------------------------------|
D|---------------------------------|---------------------------------|
A|---------------------------------|---------------------------------|
E|3---3---3---3---3---3---3---3----|3---3---3---3---3---3---3---3----|

G|---------------------------------|---------------------------------|
D|---------------------------------|---------------------------------|
A|---------------------------------|----------------------------2----|
E|3---3---3---3---3---3---3---3----|3---3---3---3---3---3---3--------|

[Chorus]
G|---------------------------------|---------------------------------|
D|---------------------------------|---------------------------------|
A|3-----------3---2-----------2----|0-----------0--------------------|
E|---------------------------------|----------------3-----------3----|

G|---------------------------------|---------------------------------|
D|------------3---2-----------2----|---------------------------------|
A|---------------------------------|5-----------5---5----------------|
E|1--------------------------------|----------------------------5----|

G|---------------------------------|---------------------------------|
D|---------------------------------|---------------------------------|
A|----------------------------2----|3-----------3--------------------|
E|3-----------3---3----------------|----------------5-----------5----|

G|---------------------------------|---------------------------------|
D|---------------------------------|---------------------------------|
A|5--------------------------------|3-----------3--------------------|
E|----------------3-----------3----|----------------5-----------5----|

G|---------------------------------|---------------------------------|
D|---------------------------------|---------------------------------|
A|5-----------5--------------------|3-------3---3---3---3---3---3----|
E|----------------3-----------3----|---------------------------------|

[Interlude]
G|---------------------------------|---------------------------------|
D|---------------------------------|---------------------------------|
A|3---3---3---3---3---3---3---3----|3---3---3---3---3---3---3---3----|
E|---------------------------------|---------------------------------|

G|---------------------------------|
D|---------------------------------|
A|3---3---3---3---3---3---3---3----|
E|---------------------------------|

[Verse]
G|---------------------------------|---------------------------------|
D|---------------------------------|---------------------------------|
A|3---3---3---3--------------------|5---------------5----------------|
E|----------------5----------------|----------------------------5----|

G|---------------------------------|---------------------------------|
D|---------------------------------|---------------------------------|
A|----------------------------2----|3-----------------------0---2----|
E|3-----------3---3----------------|----------------3----------------|

G|---------------------------------|---------------------------------|
D|---------------------------------|---------------------------------|
A|3-----------3---------/-7--------|5---------------5-------5--------|
E|----------------5----------------|--------------------5-------5----|

[Pre-Chorus]
G|---------------------------------|---------------------------------|
D|---------------------------------|---------------------------------|
A|---------------------------------|---------------------------------|
E|3---3---3---3---3---3---3---3----|3---3---3---3-/-7-----/-7--------|

G|---------------------------------|---------------------------------|
D|---------------------------------|---------------------------------|
A|---------------------------------|---------------------------------|
E|3---3---3---3---3---3---3---3----|3---3---3---3---3---3---3---3----|

[Chorus]
G|---------------------------------|---------------------------------|
D|---------------------------------|---------------------------------|
A|3-----------3---2-----------2----|0-----------0--------------------|
E|---------------------------------|----------------3-----------3----|

G|---------------------------------|---------------------------------|
D|------------3---2-----------2----|---------------------------------|
A|---------------------------------|5---5---5---5---5---5---5--------|
E|1--------------------------------|----------------------------5----|

G|---------------------------------|---------------------------------|
D|---------------------------------|---------------------------------|
A|----------------------------2----|3-----------3--------------------|
E|3-----------3---3----------------|----------------5-----------5----|

G|---------------------------------|---------------------------------|
D|---------------------------------|---------------------------------|
A|5-----------5--------------------|3-----------3--------------------|
E|----------------3-----------3----|----------------5-----------5----|

G|---------------------------------|---------------------------------|
D|---------------------------------|------------------------2--------|
A|5--------------------------------|3-------3-------5----------------|
E|----------------3----------------|---------------------------------|

G|---------------------------------|---------------------------------|
D|3-----------3---3---------/-5----|---------------------------------|
A|---------------------------------|3-----------3---3-----------3----|
E|---------------------------------|---------------------------------|

G|---------------------------------|---------------------------------|
D|---------------------------------|---------------------------------|
A|----------------------------2----|3-----------3---3-----------3----|
E|3-----------3---3----------------|---------------------------------|

[Bridge]
G|---------------------------------|---------------------------------|
D|3-------------------2---0--------|2--------------------------------|
A|---------------------------------|--------------------5---3--------|
E|---------------------------------|---------------------------------|

G|---------------------------------|---------------------------------|
D|---------------------------------|----------------2-----------2----|
A|2--------------------------------|3--------------------------------|
E|--------------------5---3--------|---------------------------------|

G|---------------------------------|---------------------------------|
D|3-------------------2---0--------|2--------------------------------|
A|---------------------------------|--------------------5---3--------|
E|---------------------------------|---------------------------------|

G|---------------------------------|---------------------------------|
D|---------------------------------|---------------------------------|
A|6---6---6---6---6---6---6---6----|---------------------------------|
E|---------------------------------|3---3---3---3---3---3---3---3----|

[Solo]
G|---------------------------------|---------------------------------|
D|---------------------------------|---------------------------------|
A|3---------------------------7----|5---------------5-----------5----|
E|----------------5----------------|--------------5---------------5--|

G|---------------------------------|------------2--------------------|
D|---------------------------------|----------2-----5----------------|
A|----------------------------2----|3---------------------------2----|
E|3-----------3---3----------------|---------------------------------|

G|---------------------------------|---------------------------------|
D|---------------------------------|---------------------------------|
A|3-----------3---------------7----|5---------------5----------------|
E|----------------5----------------|------------5---------------5----|

[Pre-Chorus]
G|---------------------------------|---------------------------------|
D|---------------------------------|---------------------------------|
A|---------------------------------|---------------------------------|
E|3---3---3---3---3---3---3---3----|3---3---3---3-/-7-----/-7--------|

G|---------------------------------|---------------------------------|
D|---------------------------------|---------------------------------|
A|---------------------------------|----------------------------2----|
E|3---3---3---3---3---3---3---3----|3---3---3---3---3---3---3--------|

[Chorus]
G|---------------------------------|---------------------------------|
D|---------------------------------|---------------------------------|
A|3-----------3---2-----------2----|0-----------0--------------------|
E|---------------------------------|----------------3-----------3----|

G|---------------------------------|---------------------------------|
D|------------3---2-----------2----|---------------------------------|
A|---------------------------------|5-------5-------5-------5--------|
E|1--------------------------------|---------------------------------|

G|---------------------------------|---------------------------------|
D|---------------------------------|---------------------------------|
A|----------------------------2----|3-----------3--------------------|
E|3-----------3---3----------------|----------------5-----------5----|

G|---------------------------------|---------------------------------|
D|---------------------------------|---------------------------------|
A|5-----------5--------------------|3-------3------------------------|
E|----------------3-----------3----|----------------5-------5--------|

G|---------------------------------|---------------------------------|
D|---------------------------------|------------------------2--------|
A|5--------------------------------|3-------3-------5----------------|
E|----------------3-------3--------|---------------------------------|

G|---------------------------------|---------------------------------|
D|3------------/--3---3-------3----|---------------------------------|
A|---------------------------------|3---------------3-------3---3----|
E|---------------------------------|---------------------------------|

G|---------------------------------|---------------------------------|
D|---------------------------------|------------------------2--------|
A|----------------------------2----|3-----------3---3----------------|
E|3-------------/-3----------------|---------------------------------|

G|---------------------------------|---------------------------------|
D|3------------/--3---3-------3----|---------------------------------|
A|---------------------------------|3---------------3-------3---3----|
E|---------------------------------|---------------------------------|

G|---------------------------------|---------------------------------|
D|---------------------------------|----------------0-------2--------|
A|----------------------------2----|3-------3------------------------|
E|3---------------3----------------|---------------------------------|

G|---------------------------------|---------------------------------|
D|3------------/--3---3-------3----|---------------------------------|
A|---------------------------------|3-------3------------------------|
E|---------------------------------|----------------5-------5--------|

G|---------------------------------|---------------------------------|
D|---------------------------------|---------------------------------|
A|5--------------------------------|3--------------------------------|
E|----------------3----------------|---------------------------------|            
Submit corrections


        Six Oclock  lessons Hard to play? Try these video lessons and learn fast Six Oclock  lessons
        
↑ Back to top | Tablatures and chords for acoustic guitar and electric guitar, ukulele, drums are parodies/interpretations of the original songs. You may use it for private study, scholarship, research or language learning purposes only