Home » R » Ride »

Ride - Sennen Tabs

Artists:  A B C D E F G H I J K L M N O P Q R S T U V W X Y Z # 

Sennen Tabs

(ver. 1) Click to play this song!
Ride
 Rating:
4.3/5 (6 votes)
                [Intro]
   E5                       Bmadd11                  A/E             Dsus2/E  A/E
e|-0-0-0--0-0--0-0-0--0-0-|-0-0-0--0-0--0-0-0--0-0-|-0-0-0--0-0--0-0----0---|-0-0-0--0-0--0-0-0--0-0-|
B|-5-5-5--5-5--5-5-5--5-5-|-3-3-3--3-3--3-3-3--3-3-|-2-2-2--2-2--2-2----3---|-2-2-2--2-2--2-2-2--2-2-|
G|-4-4-4--4-4--4-4-4--4-4-|-4-4-4--4-4--4-4-4--4-4-|-2-2-2--2-2--2-2----2---|-2-2-2--2-2--2-2-2--2-2-|  x3
D|-2-2-2--2-2--2-2-2--2-2-|-4-4-4--4-4--4-4-4--4-4-|-2-2-2--2-2--2-2----2---|-2-2-2--2-2--2-2-2--2-2-|
A|------------------------|------------------------|------------------------|------------------------|
E|------------------------|------------------------|------------------------|------------------------|
(The bass plays A | F# | A | A)

Then it's...
   D                        Dsus2    Dsus2/A        Asus4 A(let ring)
e|-2--2--2--2--2--2--2--2-|-0--0--0--0--0--0--0--0-|--0---0------0-0-0--0-0-|-0-0-0--0-0--0-0-0--0-0-|
B|-3--3--3--3--3--3--3--3-|-3--3--3--3--3--3--3--3-|--3---2------2-2-2--2-2-|-2-2-2--2-2--2-2-2--2-2-|
G|-2--2--2--2--2--2--2--2-|-2--2--2--2--2--2--2--2-|--2---2------2-2-2--2-2-|-2-2-2--2-2--2-2-2--2-2-|  x2
D|-0--0--0--0--0--0--0--0-|-0--0--0--0--0--0--0--0-|--2---2------2-2-2--2-2-|-2-2-2--2-2--2-2-2--2-2-|
A|------------------------|----------0--0--0--0--0-|--0---0------0-0-0--0-0-|-0-0-0--0-0--0-0-0--0-0-|
E|------------------------|------------------------|------------------------|------------------------|

[Interlude]
   E5/A                     Bmadd11                  A                Asus4   A                Asus4
e|-0-0-0--0-0--0-0-0--0-0-|-0-0-0--0-0--0-0-0--0-0-|-0-0-0--0-0--0-0----0---|-0-0-0--0-0--0-0----0---|
B|-5-5-5--5-5--5-5-5--5-5-|-3-3-3--3-3--3-3-3--3-3-|-2-2-2--2-2--2-2----3---|-2-2-2--2-2--2-2----3---|
G|-4-4-4--4-4--4-4-4--4-4-|-4-4-4--4-4--4-4-4--4-4-|-2-2-2--2-2--2-2----2---|-2-2-2--2-2--2-2----2---|
D|-2-2-2--2-2--2-2-2--2-2-|-4-4-4--4-4--4-4-4--4-4-|-2-2-2--2-2--2-2----2---|-2-2-2--2-2--2-2----2---|
A|-0-0-0--0-0--0-0-0--0-0-|------------------------|-0-0-0--0-0--0-0----0---|-0-0-0--0-0--0-0----0---|
E|------------------------|------------------------|------------------------|------------------------|

   E5/A               E5    Bmadd11                  A                Asus4   A               
e|-0-0-0--0-0--0-0----0---|-0-0-0--0-0--0-0-0--0-0-|-0-0-0--0-0--0-0----0---|-0-0-0--0-0--0-0-0--0-0-|
B|-5-5-5--5-5--5-5----5---|-3-3-3--3-3--3-3-3--3-3-|-2-2-2--2-2--2-2----3---|-2-2-2--2-2--2-2-2--2-2-|
G|-4-4-4--4-4--4-4----4---|-4-4-4--4-4--4-4-4--4-4-|-2-2-2--2-2--2-2----2---|-2-2-2--2-2--2-2-2--2-2-|
D|-2-2-2--2-2--2-2--------|-4-4-4--4-4--4-4-4--4-4-|-2-2-2--2-2--2-2----2---|-2-2-2--2-2--2-2-2--2-2-|
A|-0-0-0--0-0--0-0--------|------------------------|-0-0-0--0-0--0-0----0---|-0-0-0--0-0--0-0-0--0-0-|
E|------------------------|------------------------|------------------------|------------------------|

[Verse 1]
   A                                                 Bmadd11                  Dsus2/A             
e|-0-0-0--0-0--0-0-0--0-0-|-0-0-0--0-0--0-0-0--0-0-|-0-0-0--0-0--0-0-0--0-0-|-0-0-0--0-0--0-0-0--0-0-|
B|-2-2-2--2-2--2-2-2--2-2-|-2-2-2--2-2--2-2-2--2-2-|-3-3-3--3-3--3-3-3--3-3-|-3-3-3--3-3--3-3-3--3-3-|
G|-2-2-2--2-2--2-2-2--2-2-|-2-2-2--2-2--2-2-2--2-2-|-4-4-4--4-4--4-4-4--4-4-|-2-2-2--2-2--2-2-2--2-2-|  x2
D|-2-2-2--2-2--2-2-2--2-2-|-2-2-2--2-2--2-2-2--2-2-|-4-4-4--4-4--4-4-4--4-4-|-0-0-0--0-0--0-0-0--0-0-|
A|-0-0-0--0-0--0-0-0--0-0-|-0-0-0--0-0--0-0-0--0-0-|-2-2-2--2-2--2-2-2--2-2-|-0-0-0--0-0--0-0-0--0-0-|
E|------------------------|------------------------|------------------------|------------------------|

[Interlude]
   A               Dsus2/E  Bmadd11                  A               Dsus2/E  A               Dsus2/E
e|-0-0-0--0-0--0-0----0---|-0-0-0--0-0--0-0----0---|-0-0-0--0-0--0-0----0---|-0-0-0--0-0--0-0----0---|
B|-2-2-2--2-2--2-2----3---|-3-3-3--3-3--3-3----3---|-2-2-2--2-2--2-2----3---|-2-2-2--2-2--2-2----3---|
G|-2-2-2--2-2--2-2----2---|-4-4-4--4-4--4-4----4---|-2-2-2--2-2--2-2----2---|-2-2-2--2-2--2-2----2---|  x2
D|-2-2-2--2-2--2-2----2---|-4-4-4--4-4--4-4----4---|-2-2-2--2-2--2-2----2---|-2-2-2--2-2--2-2----2---|
A|-0-0-0--0-0--0-0--------|------------------------|-0-0-0--0-0--0-0--------|-0-0-0--0-0--0-0--------|
E|------------------------|------------------------|------------------------|------------------------|

[Verse 2]
   A                                                 Bmadd11                  Dsus2/A             
e|-0-0-0--0-0--0-0-0--0-0-|-0-0-0--0-0--0-0-0--0-0-|-0-0-0--0-0--0-0-0--0-0-|-0-0-0--0-0--0-0-0--0-0-|
B|-2-2-2--2-2--2-2-2--2-2-|-2-2-2--2-2--2-2-2--2-2-|-3-3-3--3-3--3-3-3--3-3-|-3-3-3--3-3--3-3-3--3-3-|
G|-2-2-2--2-2--2-2-2--2-2-|-2-2-2--2-2--2-2-2--2-2-|-4-4-4--4-4--4-4-4--4-4-|-2-2-2--2-2--2-2-2--2-2-|  x2
D|-2-2-2--2-2--2-2-2--2-2-|-2-2-2--2-2--2-2-2--2-2-|-4-4-4--4-4--4-4-4--4-4-|-0-0-0--0-0--0-0-0--0-0-|
A|-0-0-0--0-0--0-0-0--0-0-|-0-0-0--0-0--0-0-0--0-0-|-2-2-2--2-2--2-2-2--2-2-|-0-0-0--0-0--0-0-0--0-0-|
E|------------------------|------------------------|------------------------|------------------------|
 
[Chorus]
   A                                                 E5                       Dsus2             
e|-0-0-0--0-0--0-0-0--0-0-|-0-0-0--0-0--0-0-0--0-0-|-0-0-0--0-0--0-0-0--0-0-|-0-0-0--0-0--0-0-0--0-0-|
B|-2-2-2--2-2--2-2-2--2-2-|-2-2-2--2-2--2-2-2--2-2-|-5-5-5--5-5--5-5-5--5-5-|-3-3-3--3-3--3-3-3--3-3-|
G|-2-2-2--2-2--2-2-2--2-2-|-2-2-2--2-2--2-2-2--2-2-|-4-4-4--4-4--4-4-4--4-4-|-2-2-2--2-2--2-2-2--2-2-|  x4
D|-2-2-2--2-2--2-2-2--2-2-|-2-2-2--2-2--2-2-2--2-2-|-2-2-2--2-2--2-2-2--2-2-|-0-0-0--0-0--0-0-0--0-0-|
A|-0-0-0--0-0--0-0-0--0-0-|-0-0-0--0-0--0-0-0--0-0-|------------------------|------------------------|
E|------------------------|------------------------|------------------------|------------------------|

[Outro]
 D                        Dsus2    Dsus2/A        Asus4 A(let ring)
e|-2--2--2--2--2--2--2--2-|-0--0--0--0--0--0--0--0-|--0---0------0-0-0--0-0-|-0-0-0--0-0--0-0-0--0-0-|
B|-3--3--3--3--3--3--3--3-|-3--3--3--3--3--3--3--3-|--3---2------2-2-2--2-2-|-2-2-2--2-2--2-2-2--2-2-|
G|-2--2--2--2--2--2--2--2-|-2--2--2--2--2--2--2--2-|--2---2------2-2-2--2-2-|-2-2-2--2-2--2-2-2--2-2-|  x4
D|-0--0--0--0--0--0--0--0-|-0--0--0--0--0--0--0--0-|--2---2------2-2-2--2-2-|-2-2-2--2-2--2-2-2--2-2-|
A|------------------------|----------0--0--0--0--0-|--0---0------0-0-0--0-0-|-0-0-0--0-0--0-0-0--0-0-|
E|------------------------|------------------------|------------------------|------------------------|            
Submit corrections

↑ Back to top | Tablatures and chords for acoustic guitar and electric guitar, ukulele, drums are parodies/interpretations of the original songs. You may use it for private study, scholarship, research or language learning purposes only