Home » R » Ricky Skaggs »

Ricky Skaggs - Amanda Jewell (mandolin Tab) Tabs

Artists:  A B C D E F G H I J K L M N O P Q R S T U V W X Y Z # 

Amanda Jewell (mandolin Tab) Tabs

(ver. 1) Click to play this song!
Ricky Skaggs


--3-5-5-5-0-3-2-0---5-5-5-0-3-5-0-0-0-0--3-5-5-5-0-3-2-0
------------------4-------------------------------------
--------------------------------------------------------
--------------------------------------------------------


---------------0-------------------------
-4-0-0-3s4-4-4---2h3-2h3-0-0-0-0---------
-----------------------------------------
-----------------------------------------


---------------------0----------------------------------
-----------3-2-0-------3-2-0---------0-3-2-0---3s4-4-4-4
-4-2-0-4-0-------4-2---------4-2-3s4---------4----------
--------------------------------------------------------


---------------------0-2-0-----------------------------
-0-------0-3-2-0-----------3-2-0----------------0-0-0-0
---0-3-4---------4-2-------------4-2-2-2-4-2-4---------
-------------------------------------------------------


            
Submit corrections

↑ Back to top | Tablatures and chords for acoustic guitar and electric guitar, ukulele, drums are parodies/interpretations of the original songs. You may use it for private study, scholarship, research or language learning purposes only