Home » R » Richie Kotzen »

Richie Kotzen - Lose Again Tabs

Artists:  A B C D E F G H I J K L M N O P Q R S T U V W X Y Z # 

Lose Again Tabs

(ver. 1) Click to play this song!
Richie Kotzen
[Intro]
 
E|--------7p4-----------------------------------|--------7p4-----------------------------|
B|-----0--5-------7--7p5-----4--4-------2--2----|-----0--5-------7p5--4--4-------2--2----|
G|-----2--6-------4--4-------4--6p4-----2--4p2--|-----2--6-------4----4--6p4-----2--4p2--|
D|-----2----------6--6-------4--4-------2--2----|-----2----------6----4--4-------2--2----|
A|--0--0-------4--4--4--------------------------|--0--0-------4--4-----------------------|
E|------------------------4--4-------2--2-------|---------------------4-------2--2-------|
 
[Verse 1]
 
E|--------0-----------------------------------------|--------0-----------------------------------------|
B|-----0--5--------5--5--------4--4--------2--2-----|-----0--5--------5--5--------4--4--------2--2-----|
G|-----2--6--------4--4--------4--4--------2--2-----|-----2--6--------4--4--------4--4--------2--2-----|
D|-----2--7--------6--6--------4--4--------2--2-----|-----2--7--------6--6--------4--4--------2--2-----|
A|--0--0--0-----4--4--4-----------------------------|--0--0--0-----4--4--4-----------------------------|
E|--------------------------4--4--4-----2--2--2-----|--------------------------4--4--4-----2--2--2-----|
 
E|--------0-----------------------------------------|--------2-----------2-----------5-----------------|
B|-----0--5--------5--5--------4--4--------2--2-----|--------5-----------5--------0--5--------5--5-----|
G|-----2--6--------4--4--------4--4--------2--2-----|-----3--3--------3--3--------2--6--------6--6-----|
D|-----2--7--------6--6--------4--4--------2--2-----|-----2--2--------2--2--------2--7--------7--7-----|
A|--0--0--0-----4--4--4-----------------------------|-----4--4--------4--4-----0--0--0-----0--0--------|
E|--------------------------4--4--4-----2--2--2-----|--2--2--2-----2--2--2-----------------------------|
 
[Chorus]
 
e|--------0-----------0-----------------------0-----------0-----------0-----------------------0-----0-----|
B|-----0--0--------4--4--------7--7--------0--5--------0--0--------4--4--------7--7--------0--5-----0-----|
G|-----1--1--------4--4--------7--7--------2--6--------1--1--------4--4--------7--7--------2--6-----4-----|
D|-----2--2--------4--4--------7--7--------2--7--------2--2--------4--4--------7--7--------2--7-----4-----|
A|-----2--------2--2--2-----5--5--5-----0--0--0--------2--------2--2--2-----5--5--5-----0--0--0-----2-----|
E|--0--0--------------------------------------------0--0--------------------------------------------------|
 
E|-----0-----|--------7p4-----------5------------------------|
B|--0--0-----|-----0--5-------7--7--------4--4-------2--2----|
G|--1--1-----|-----2--6-------4--4--------4--6p4-----2--4p2--|
D|--2--2-----|-----2----------6--6--------4--4-------2--2----|
A|--2--------|--0--0-------4--4--4---------------------------|
E|-----------|-------------------------4--4-------2--2-------|
 
[Verse 2]
 
E|--------0-----------------------------------------|--------0-----------------------------------------|
B|-----0--5--------5--5--------4--4--------2--2-----|-----0--5--------5--5--------4--4--------2--2-----|
G|-----2--6--------4--4--------4--4--------2--2-----|-----2--6--------4--4--------4--4--------2--2-----|
D|-----2--7--------6--6--------4--4--------2--2-----|-----2--7--------6--6--------4--4--------2--2-----|
A|--0--0--0-----4--4--4-----------------------------|--0--0--0-----4--4--4-----------------------------|
E|--------------------------4--4--4-----2--2--2-----|--------------------------4--4--4-----2--2--2-----|
 
E|--------0-----------------------------------------|--------2-----------2-----------5-----------5-----|
B|-----0--5--------5--5--------4--4--------2--2-----|--------5-----------5--------0--5--------5--5-----|
G|-----2--6--------4--4--------4--4--------2--2-----|-----3--3--------3--3--------2--6--------6--6-----|
D|-----2--7--------6--6--------4--4--------2--2-----|-----2--2--------2--2--------2--7--------7--7-----|
A|--0--0--0-----4--4--4-----------------------------|-----4--4--------4--4-----0--0--0-----0--0--------|
E|--------------------------4--4--4-----2--2--2-----|--2--2--2-----2--2--2-----------------------------|
 
 
[Chorus] and [Outro]
 
e|--------0-----------0-----------------------0-----------0-----------0-----------------------0-----0-----|
B|--------0--------4--4--------7--7--------0--5-----------0--------4--4--------7--7--------0--5-----0-----|
G|-----1--1--------4--4--------7--7--------2--6--------1--1--------4--4--------7--7--------2--6-----4-----|
D|-----2--2--------4--4--------7--7--------2--7--------2--2--------4--4--------7--7--------2--7-----4-----|
A|-----2--------2--2--2-----5--5--5-----0--0--0--------2--------2--2--2-----5--5--5-----0--0--0-----2-----|
E|--0--0--------------------------------------------0--0--------------------------------------------------|
 
E|-----0-----|--------7p4-----------------------------------0-----0--0-----------------0~------|
B|--0--0-----|-----0--5-------7--7p5-----4--4-------2--2----0-----0--0--------------0~---------|
G|--1--1-----|-----2--6-------4--4-------4--6p4-----2--2----4-----1--1-----------2~------------|
D|--2--2-----|-----2----------6--6-------4--4-------2--2----4-----2--2--------2~---------------|
A|--2--------|--0--0-------4--4--4---------------------4----2-----2--------0~------------------|
E|-----------|------------------------4--4-------2--2-------------0----------------------------|
            
Submit corrections

↑ Back to top | Tablatures and chords for acoustic guitar and electric guitar, ukulele, drums are parodies/interpretations of the original songs. You may use it for private study, scholarship, research or language learning purposes only