» » »

Rhodes - You And I Tabs

Artists:  A B C D E F G H I J K L M N O P Q R S T U V W X Y Z # 

You And I Tabs

(ver. 1) Click to play this song!
Rhodes
 Rating:
4.3/5 (26 votes)

 You And I  lessons Tabs too difficult? Try these video lessons and learn fast
 
                [Intro]
D|------0------0------0------0------|
A|------0------0------0------0------|
F|------2------2------1------1------|   (x2)
C|------4------4------2------2------|
G|------5------4------2------2------|
D|--------------------0------0------|

[Verse 1]
D|------0------0------0------0------|
A|------0------0------0------0------|
F|------2------2------1------1------|   (x4)
C|------4------4------2------2------|
G|------5------4------2------2------|
D|--------------------0------0------|

[Chorus]
D|------7------5------7------7------|
A|------7------5------9------9------|
F|------7------6------9------9------|   (x2)
C|------9------7------9------9------|
G|------9------7------7------7------|
D|------7------5--------------------|

[Verse 2]
D|------0------0------0------0------|
A|------0------0------0------0------|
F|------2------2------1------1------|   (x4)
C|------4------4------2------2------|
G|------5------4------2------2------|
D|--------------------0------0------|

[Chorus]
D|------7------5------7------7------|
A|------7------5------9------9------|
F|------7------6------9------9------|   (x2)
C|------9------7------9------9------|
G|------9------7------7------7------|
D|------7------5--------------------|

[Bridge] 
(Come on...):
D|------7---------7------|
A|------7---------9------|
F|------7---------9------|   (x6)
C|------9---------9------|
G|------9---------7------|
D|------7----------------|

(You and I...):
D|------7------5------7------7------|
A|------7------5------9------9------|
F|------7------6------9------9------|
C|------9------7------9------9------|
G|------9------7------7------7------|
D|------7------5--------------------|            
Submit corrections


        You And I  lessons Hard to play? Try these video lessons and learn fast You And I  lessons
        
↑ Back to top | Tablatures and chords for acoustic guitar and electric guitar, ukulele, drums are parodies/interpretations of the original songs. You may use it for private study, scholarship, research or language learning purposes only