» » »

Rhodes - Turning Back Around Tabs

Artists:  A B C D E F G H I J K L M N O P Q R S T U V W X Y Z # 

Turning Back Around Tabs

(ver. 1) Click to play this song!
Rhodes
 Rating:
4.4/5 (5 votes)

 Turning Back Around  lessons Tabs too difficult? Try these video lessons and learn fast
 
                [Intro]

          A       x4     D       x4
e|---------------||--------------||-------------------------|
B|---------------||--------------||-------------------------|
G|---------------||--------------||-------------------------|
D|---------------||--------2-2---||-------------------------|
G|---------7-7---||--------------||-------------------------|
C|----7--7-----7-||---0--0-----0-||-------------------------|


[Verse 1]

There's water on the ground
down by the milestone
I don't know how shallow it is
Can you tell, can you tell
Just by looking at it?

          A       x4     D       x4      F#m     x3           (E)        D       x4
e|---------------||--------------||--------------||--------------||--------------||-----------------|
B|---------------||--------------||--------------||--------------||--------------||-----------------|
G|---------------||--------------||--------------||--------------||--------------||-----------------|
D|---------------||--------2-2---||--------2-2---||--------2-2---||--------2-2---||-----------------|
G|---------7-7---||--------------||--------------||--------------||--------------||-----------------|
C|----7--7-----7-||---0--0-----0-||---4--4-----4-||---4--4-----2-||---0--0-----0-||-----------------|


[Verse 2]

Well I need to get across
But my hands are tied by my side
Can you swim, can you swim
Just by kicking out?


          A            x4        C#m7            x4        F#m           x3         (E)   
e|---------------------||-----------------------||-----------------------||-----------------------||
B|---------------------||-----------------------||-----------------------||-----------------------||
G|---------------------||------------2---2------||-----------(0)-(0)-----||-----------(0)-(0)-----||
D|---------(0)-(0)-----||--(4)--(4)-(4)-(4)-(4)-||------------2---2------||------------2---2------||
G|---------7----7------||---4----4-----------4--||--(4)--(4)---------(4)-||--(4)--(4)---------(2)-||
C|----7--7-----------7-||-----------------------||---4----4-----------4--||---4----4-----------2--||


             D         x4
e|-----------------------||
B|-----------------------||
G|-----------(0)-(0)-----||
D|------------2---2------||
G|--(0)--(0)---------(0)-||
C|---0----0-----------0--||


[Pre-Chorus]

I didn't mean no harm
I didn't mean no harm

          Bm7            x4          D        x4
e|-----------------------||----------0---0----||
B|-----------------------||----------5---5----||
G|------------0-0--------||----------0---0----||
D|-----------10-10-------||---5--5--(5)-(5)-5-||
G|--(9)--(9)---------(9)-||-- 5--5--(5)-(5)-5-||
C|---9----9-----------9--||---0--0----------0-||


[Chorus]

        F#m   A      D           A
Now I'm hiding from everyone I know
        D              A
I can't tell them what I know

    F#m  A    D           A
I'm lying to everyone I know
        D              A
I can't tell them what I know

    Bm7 A        D
And ooh, I'm not turning back around


[Verse 3]

(Chords like in Verse 1 but strumming like in Verse 2)

Oh my gentle mood longs
You don't know how lonely I've been
Can you tell, can you tell
Just by looking at me?


[Pre-Chorus]

I didn't mean no harm
I didn't mean no harm


[Chorus]

        F#m   A      D           A
Now I'm hiding from everyone I know
        D              A
I can't tell them what I know

    F#m  A    D           A
I'm lying to everyone I know
        D              A
I can't tell them what I know

    Bm7 A        D
And ooh, I'm not turning back around (x4)


[Bridge]

A*
I heard you, I heard it all
G*
I heard you, I heard it all
D*
I heard you, I heard it all
D*
I heard you, I heard it all
A*
I heard you, I heard it all
G*
I heard you, I heard it all
D*
I heard you, I heard it all
D*
I heard you, I heard it all


[Outro]

    Bm7 A        D
And ooh, I'm not turning back around
    Bm7 A        D
And ooh, I'm not turning back around            
Submit corrections


        Turning Back Around  lessons Hard to play? Try these video lessons and learn fast Turning Back Around  lessons
        
↑ Back to top | Tablatures and chords for acoustic guitar and electric guitar, ukulele, drums are parodies/interpretations of the original songs. You may use it for private study, scholarship, research or language learning purposes only