Home » R » Rhett And Link »

Rhett And Link - Taco Bell Folk Song Tabs

Artists:  A B C D E F G H I J K L M N O P Q R S T U V W X Y Z # 

Taco Bell Folk Song Tabs

(ver. 1) Click to play this song!
Rhett And Link
-------------------------------------------------------------------------------
-------------------------------------------------------------------------------
Tuning: Standard


I'm 100% sure the chords are right, I tried my best on strumming pattern

      C                    Am                    F                    G
e|----0-0---0---0-0---0----0-0---0---0-0---0-----1-1---1---1-1---1----3------|\
B|----1-1---1---1-1---1----1-1---1---1-1---1-----1-1---1---1-1---1----3------| \
G|----0-0---0---0-0---0----2-2---2---2-2---2-----2-2---2---2-2---2----0------|  2
D|----2-2---2---2-2---2----2-2---2---2-2---2-----3-3---3---3-3---3----0------|  x
A|--3-3-3-3-3-3-3-3-3-3--0-0-0-0-0-0-0-0-0-0-----3-3---3---3-3---3----2------| /
E|---------------------------------------------1-1-1-1-1-1-1-1-1-1----3------|/
 I'll start with a taco.. Make mine crunchy..  I'll choose a cha..  And two taco...
 And a burrito supreme... It's a cylindrically.. A taquito. an ...  A chicken border..

    Am               F       (*)   (*)    C                G
e|--0---0---0---0----1---1---(1)---(1)----0---0---0---0----3-----------------|\Play (*)
B|--1---1---1---1----1---1---(1)---(1)----1---1---1---1----3-----------------| \
G|--2---2---2---2----2---2---(2)---(2)----0---0---0---0----0-----------------|  2
D|--2---2---2---2----3---3---(3)---(3)----2---2---2---2----0-----------------|  x
A|--0---0---0---0----3---3---(3)---(3)----3---3---3---3----2-----------------| /
E|-------------------1---1---(1)---(1)---------------------3-----------------|/Second time
  And you know ..  hmmm, mmm mexican ... we'll take two.. but please hold...
  And I admit I..  like I'm in love .... Make mine with.. As the cheese drops..

      C                    Am                    F                    G
e|----0-0---0---0-0---0----0-0---0---0-0---0-----1-1---1---1-1---1----3------|\
B|----1-1---1---1-1---1----1-1---1---1-1---1-----1-1---1---1-1---1----3------| \
G|----0-0---0---0-0---0----2-2---2---2-2---2-----2-2---2---2-2---2----0------|  2
D|----2-2---2---2-2---2----2-2---2---2-2---2-----3-3---3---3-3---3----0------|  x
A|--3-3-3-3-3-3-3-3-3-3--0-0-0-0-0-0-0-0-0-0-----3-3---3---3-3---3----2------| /
E|---------------------------------------------1-1-1-1-1-1-1-1-1-1----3------|/
  Double-Decker taco ca.. And make my sauce..  And we'll take two... chance at..
  I'm told theres a win.. But I'm stealing ..  Why would you do tha. I owe you five

      F                     C                    G      Am
e|----1-1---1---1-1---1-----0-0---0---0-0---0----3------0------|
B|----1-1---1---1-1---1-----1-1---1---1-1---1----3------1------|
G|----2-2---2---2-2---2-----0-0---0---0-0---0----0------2------|
D|----3-3---3---3-3---3-----2-2---2---2-2---2----0------2------|
A|----3-3---3---3-3---3---3-3-3---3---3-3-3-3----2------0------|
E|--1-1-1-1-1-1-1-1-1-1--------------------------3-------------|
  And I think we'll be satisfied if we get some mexi.. on the side 

===============================================================================
LYRICS:

Ill start with a taco, soft like a cloud 
I want mine crunchy, I like to eat loud. 
Ill choose a chalupa, Iʼll grab a gordita, 
and two taco salads for our senoritas. 
And a Burrito Supreme, with extra sour cream 
Its a cylindrically shaped seasoned beef dream. 
A taquito. An enchirito. Some cinnamon twists. 
A chicken border bowl. Are you gettin all this? 

And you know that nothing beats a 
hmmm, mmmm...Mexican Pizza... 
We ll take two of those, but please hold the diced tomatoes. 
And I admit, Ive always felt, 
like Im in love with the meximelt. 
Make mine with a little extra love, and think of me... 
as the cheese drops from your Taco Bell glove. 
and thats it. 

No! Im not done...Iʼll also take a... 

Double-decker taco cause Im feeling wild 
And make my sauce Fire. Uh, he\ll take mild. 
and well take two Mt. Dew Baja blasts 
for a chance at 25 dollars cash 
Im told theres a winner for every 5 minutes 
Im stealing your online code if you win it. 
Why would you do that? You owe me 25 bones 
I owe you 5. Plus interest--it was a loan. 
And I think we\ll be satisfied, if we get some mexican rice on the side. 
And thats it.
===============================================================================
            
Submit corrections

↑ Back to top | Tablatures and chords for acoustic guitar and electric guitar, ukulele, drums are parodies/interpretations of the original songs. You may use it for private study, scholarship, research or language learning purposes only