Home » R » Rhett And Link »

Rhett And Link - Good Mythical Morning Tabs

Artists:  A B C D E F G H I J K L M N O P Q R S T U V W X Y Z # 

Good Mythical Morning Tabs

(ver. 1) Click to play this song!
Rhett And Link
Standard Tuning: EADGBe


e----------------------------------------------------------------
B----------------------------------------------------------------
G---------------12----9---------------12----9--------------------
D---------10---------------10----9---------------9---------------
A----------------------------------------------------------------
E----------------------------------------------------------------


e----------------------------------------------------------------
B----------------------------------------------------------------
G---------------12----9---------------12----9--------------------
D---------7----------------10----9---------------9----10---------
A----------------------------------------------------------------
E----------------------------------------------------------------            
Submit corrections

↑ Back to top | Tablatures and chords for acoustic guitar and electric guitar, ukulele, drums are parodies/interpretations of the original songs. You may use it for private study, scholarship, research or language learning purposes only