Home » R » Rhett Akins »

Rhett Akins - Kiss My Country Ass ( Tabs

Artists:  A B C D E F G H I J K L M N O P Q R S T U V W X Y Z # 

Kiss My Country Ass ( Tabs

(ver. 1) Click to play this song!
Rhett Akins
Drop D tuning.....play this and then play lmofle's chords

check out the soundbyte too
      
-2--2----3--3--3--3--3--3----------------
-3--3----3--3--3--3--3--3----------------
-2--2----0--0--0--0--0--0----------------
-0--0----2--2--2--2--2--2----------------
-0--0----3--3--3--3--3--3-----3/5-5-5\3--
-0--0----0--0--0--0--0--0-----3/5-5-5\3--


------2--2--2--2--2--2--2---
------3--3--3--3--3--3--3---
------2--2--2--2--2--2--2---
------0--0--0--0--0--0--0---
0--0--0--0--0--0--0--0------
0--0--0--0--0--0--0--0------   repeat 2x


            
Submit corrections

↑ Back to top | Tablatures and chords for acoustic guitar and electric guitar, ukulele, drums are parodies/interpretations of the original songs. You may use it for private study, scholarship, research or language learning purposes only