» » »

Rhapsody Of Fire - Emerald Sword Tabs

Artists:  A B C D E F G H I J K L M N O P Q R S T U V W X Y Z # 

Emerald Sword Tabs

(ver. 1) Click to play this song!
Rhapsody Of Fire
 Rating:
4/5 (4 votes)

 Emerald Sword lessons Tabs too difficult? Try these video lessons and learn fast
 
                (Intro)
Intro & Violin solo.

Tuned Half-Step Down

|----------------------------------------------------------|
|----------------------------------------------------------|
|---------12-13-10----13-12------12-10---------------------|
|--10-10--------------------13---------13-12-10------------|
|-----------------------------------------------13~--------|
|----------------------------------------------------------|


|----------------------------------------------------------|
|----------------------------------------------------------|
|---------12-13-10----13-12--------12----------------------|
|--10-10--------------------13------------12-10------------|
|-------------------------------------13-------------------|
|----------------------------------------------------------|



|---------15-------------------------------------------15------20p18p17---|
|-------15----18--18p16p15-18p16p15------------------15----18-------------|
|-----15----------------------------17-15-14-------15---------------------|
|---17---------------------------------------17--17-----------------------|
|-------------------------------------------------------------------------|
|-------------------------------------------------------------------------|


|-20p18p17-15-15-18-15-17-18-----22-23-22-20-18-17--18p17p15-18p17p15-----|
|-------------------------------------------------------------------------|
|-------------------------------------------------------------------------|
|-------------------------------------------------------------------------|
|-------------------------------------------------------------------------|
|-------------------------------------------------------------------------|


|-24b25-20----20--23p22p20-23p22p20---------------------------------------|
|----------22-----------------------20------------------------------------|
|-------------------------------------------------------------------------|
|-------------------------------------------------------------------------|
|-------------------------------------------------------------------------|
|-------------------------------------------------------------------------|
            
Submit corrections


        Emerald Sword lessons Hard to play? Try these video lessons and learn fast Emerald Sword lessons
        
↑ Back to top | Tablatures and chords for acoustic guitar and electric guitar, ukulele, drums are parodies/interpretations of the original songs. You may use it for private study, scholarship, research or language learning purposes only