Home » R » Rey Valera »

Rey Valera - Pangako Sayo Tabs

Artists:  A B C D E F G H I J K L M N O P Q R S T U V W X Y Z # 

Pangako Sayo Tabs

(ver. 1) Click to play this song!
Rey Valera
E|-----0-----------0--------0--0-----------------------0--|
B|--------------1-----1-----------3--3--------------0-----|
G|--0--------0-----------0-----------------------1--------|
D|--------2-----------------------------------0-----------|
A|-----3-----------------------2-----------2--------------|
E|--------------------------------------0-----------------|
 C       Bm      E7
   Noon akala ko

E|--0-----------------------0--0--------0--|
B|-----3--1--0--1--------1-----------1-----|
G|--------------------2-----------2--------|
D|-----------------2-----------3-----------|
A|-----0-----------------------------------|
E|-----------------------------------------|
 Am          Am7 FM7
   Ang wagas na pag-ibig

E|--------1--1--1--1h3--1--------1--0--0-----0--|
B|--------3----------------3--------------3--1--|
G|--2--2--2-------------------2--------------0--|
D|-----0----------------------------------------|
A|-------------------------------3--------------|
E|----------------------------------------------|
      Dm             C
   Ay sa nobela lang matatagpuan


E|--0--0--------------------1--5--3--3-----3h5--3-----------------|
B|--------3--3--1--3-----3--3-----------5----------3--------------|
G|--------------------2-----2-------------------------4-----------|
D|-----0-------------------------------------------------5--------|
A|----------------------------------------------------------5-----|
E|-----------------------------3-------------------------------3--|
      Dm                 G             (pause)
   At para bang kay hirap na paniwalaan

II

E|--3--0-----------0--------0--0--1--0--------------------0--|
B|--------------1-----1-----------------3--------------0-----|
G|-----------0-----------0--------------------------1--------|
D|--------2--------------------------------------0-----------|
A|-----3-----------------------2--------------2--------------|
E|-----------------------------------------0-----------------|
    C     BM      E7
   Ikaw, ikaw pala

E|--0-----------------------0--0--------0--|
B|-----3--1--0--1--------1-----------1-----|
G|--------------------2-----------2--------|
D|-----------------2-----------3-----------|
A|-----0-----------------------------------|
E|-----------------------------------------|
         Am         Am7  FM7
   Ang hinihintay kong pangarap


E|--------1--1--1--1h3--1--------1--0--0-----0--|
B|--------3----------------3--------------3--1--|
G|--2--2--2-------------------2--------------0--|
D|-----0----------------------------------------|
A|-------------------------------3--------------|
E|----------------------------------------------|
      Dm                  C
   Ngayong kapiling ka at tayo'y iisa


E|--0--0--------------------1--5--3--3-----3h5--3-----------------|
B|--------3--3--1--3-----3--3-----------5----------3--------------|
G|--------------------2-----2-------------------------4-----------|
D|-----0-------------------------------------------------5--------|
A|----------------------------------------------------------5-----|
E|-----------------------------3-------------------------------3--|
     Dm                    G                     (pause)
   Hindi ko hahayaan na sa atin ay may hahadlang


Chorus:


E|-----3/5--3--0--3-----------0--0--0--0--3--5--5p3--------|
B|-------------------------1-----1-------------------0-----|
G|--0-------------------0--------0----------------------0--|
D|-------------------2-------------------------------------|
A|----------------3-----------------------2----------------|
E|---------------------------------------------------------|
               C       Bm
   Pangako sa 'yo, ipaglalaban ko


E|--0-----5--6--6--5--3--3--3--1--0--3--1-----1--|
B|-----8-----------------------------------3--3--|
G|--------------------------------------------2--|
D|-----------------------------------0--------0--|
A|-----------------------------------------------|
E|-----6-----------5-----------------------------|
      Bb           A                   Dm
   Sa hirap at ginhawa ang ating pag-ibig


E|----1--3--1--3--1--0-----0--3/5--3-----------3--|
B|----1-----------------3--1-------------------0--|
G|----2--------------------0----------------0--0--|
D|----3--------------------2-------------2--------|
A|----3--------------------3----------2-----------|
E|----1----------------------------0--------------|
     F                  C     Em
   Upang 'di magkalayo kailan man


E|----3--0--------------|
B|-------1--1--1-----1--|
G|-------2--------2-----|
D|-------2--------------|
A|-------0--------------|
E|----------------------|
       Am
   'Pagkat ang tulad mo


E|--3--0-----------------------------3--|
B|-----1--1--1-----1--1--3-----------3--|
G|-----2--------2-----------------4--4--|
D|-----3-----------------------5-----5--|
A|--------------------------5--------5--|
E|-----------------------3-----------3--|
      FM7                   G
   Ay minsan lang sa buhay ko            
Submit corrections

↑ Back to top | Tablatures and chords for acoustic guitar and electric guitar, ukulele, drums are parodies/interpretations of the original songs. You may use it for private study, scholarship, research or language learning purposes only