Home » R » Rey Valera »

Rey Valera - Kahit Maputi Na Ang Buhok Ko Tabs

Artists:  A B C D E F G H I J K L M N O P Q R S T U V W X Y Z # 

Kahit Maputi Na Ang Buhok Ko Tabs

(ver. 1) Click to play this song!
Rey Valera
Rey Valera

Intro: F Bb F C7sus-C7(break)

e|-5---5-6-8--8-10-8-6-8--5---5-6-8-8^-8h10-8--|
B|---6----------------------6------------------|
G|---------------------------------------------|
D|---------------------------------------------|
A|---------------------------------------------|
E|---------------------------------------------|

Verse 1:
					F
Kung tayo ay matanda na
  FM7	   Gm	      C
Sana'y 'di tayo magbago
  F	   		FM7
Kailanman, nasaan ma'y
     Gm		  C
Ito ang pangarap ko

Chorus 1:
		  Am		A7					Dm7  Cm7-F-Bb
Makuha mo pa kayang ako'y hagkan at yakapin, hmm...
		  C	     	 F  Cm7-F
Hanggang pagtanda natin
			Bb			C		  		Am 		D7sus-D7
Nagtatanong lang sa'yo ako pa kaya'y ibigin mo
		Gm		C	  Intro
Kung maputi na ang buhok ko

Verse 2: Verse 1 chords
Pagdating ng araw ang 'yong buhok
Ay puputi na rin
Sabay tayong mangangarap
Ng nakaraan sa'tin

Chorus 2:
Ang naklipas ay ibabalik natin, hmmm...
Ipapaalala ko sa'yo
Ang aking pangako na'ng pag-ibig ko'y lagi sa'yo
						  F  B C#
Kahit maputi na ang buhok ko

Adlib: F# F#M7 G#m C# (2x)
e|--------------9-----------------------------------9-----------------------|
B|-9^-11-11-9-9---11-9-7-9/11-11/12-9--9^-11-11-9-9---11-9-7-9/11-11/12-12--|
G|--------------------------------------------------------------------------|
D|--------------------------------------------------------------------------|
A|--------------------------------------------------------------------------|
E|--------------------------------------------------------------------------|

Chorus 2: Bbm Bb7 Ebm7 C#m7-F#-B
		  C# F# C#m7-F#
		  B C# Bbm Eb7sus-Eb7
		  G#m C#

Outro: F# B F# B end in F#
e|-6---6-7-9--9-11-9-7-9-7--6---6-7-9--9-11-9-7-9-7-6--|
B|---7------------------------7---------------------7--|
G|--------------------------------------------------6--|
D|-----------------------------------------------------|
A|-----------------------------------------------------|
E|-----------------------------------------------------|



I love you Aerese!
            
Submit corrections

↑ Back to top | Tablatures and chords for acoustic guitar and electric guitar, ukulele, drums are parodies/interpretations of the original songs. You may use it for private study, scholarship, research or language learning purposes only