» » »

Rev Theory - Favorite Disease Tabs

Artists:  A B C D E F G H I J K L M N O P Q R S T U V W X Y Z # 

Favorite Disease Tabs

(ver. 1) Click to play this song!
Rev Theory
 Rating:
4.3/5 (28 votes)

 Favorite Disease lessons Tabs too difficult? Try these video lessons and learn fast
 
                [Intro] Distortion

D#|------------------------------------------------------------------------------------------------------|
A#|------------------------------------------------------------------------------------------------------|
F#|--14-14-14-14-14-14-14-14-14-12-x-12-x-12-x-12-12-14-7-7-7-7-7-7-7-7-7-14-17-x-17-x-17-x-17-x-17-17---|
C#|--0--0--0--0--0--0--0--0--0--0--x-0--x-0--x-0--0--0--0-0-0-0-0-0-0-0-0-0--0--x-0--x-0--x-0--x-0--0----|
G#|------------------------------------------------------------------------------------------------------|
C#|-[PM- - - - - - - - - - ]-----------------------------[PM - - - - - - ]-------------------------------|

D#|------------------------------------------------------------------------------------------------------|
A#|------------------------------------------------------------------------------------------------------|
F#|--14-14-14-14-14-14-14-14-14-12-x-12-x-12-x-12-12-14-7-x-7-x-7-x-7-x-14-17-x-17-x-17-x-17-x-17--------|
C#|--0--0--0--0--0--0--0--0--0--0--x-0--x-0--x-0--0--0--0-x-0-x-0-x-0-x-0--0--x-0--x-0--x-0--x-0---------|
G#|------------------------------------------------------------------------------------------------------|
C#|-[PM- - - - - - - - - - ]-----------------------------------------------------------------------------|

D#|------------------------------------------------------------------------------------------------------|
A#|------------------------------------------------------------------------------------------------------|
F#|----14-14-12-12-11-11-7--7-14-14-12-12-10-10--5--5--14-14-12-12-17-17-14-14-14-14-12-12-17-17-14-14---|
C#|--0-0--0--0--0--0--0--0--0-0--0--0--0--0--0---0--0--0--0--0--0--0--0--0--0--0--0--0--0--0--0--0--0----|
G#|------------------------------------------------------------------------------------------------------|
C#|------------------------------------------------------------------------------------------------------|

D#|--14----15----17----15----13----15----17----13----15----17----15-15-14----15-14----17--15\\\----------|
A#|-----15----15----15----15----15----15----15----15----15----15----------15-------15-----14\\\----------|
F#|------------------------------------------------------------------------------------------------------|
C#|------------------------------------------------------------------------------------------------------|
G#|------------------------------------------------------------------------------------------------------|
C#|------------------------------------------------------------------------------------------------------|


[Verse 1] Distortion

D#|---x---x---x-x-x---x---x---x--------------------------------------------------------------------------|
A#|---x---x---x-x-x---x---x---x-------------------3-----------3------------------------------------------|
F#|-7-x-5-x-7-x-x-x---x---x---x-------------------2--5--5--7--2--5--5--8---------------------------------|
C#|-7-x-5-x-7-x-x-x-6-x-6-x-5-x----5*-------------0--3--5--5--0--3--5--6---------------------------------|
G#|-5-x-3-x-5-x-x-x-6-x-6-x-5-x------------(x4)---0--3--3--5--0--3--3--6---------------------------------|
C#|---x---x---x-x-x-6-x-6-x-5-x-5*----5*----------0--3-----5--0--3-----6---------------------------------|

[Chorus] Distortion

D#|-------------------------------------------------------------------------------------------------|
A#|-------------------------------------------------------------------------------------------------|
F#|-x-17-14-x-14-x-14-x-14-x-14-12-x-12-x-12-x-12--x-10h14-x-14-x-14-x-14-x-12-17-x-17-x-17-x-12-14-|
C#|-x-0--0--x-0--x-0--x-0--x-0--0--x-0--x-0--x-0---x-0--0--x-0--x-0--x-0--x-0--0--x-0--x-0--x-0--0--|
G#|-------------------------------------------------------------------------------------------------|
C#|-------------------------------------------------------------------------------------------------|

D#|--------------------------------------------------------------------------------x----------------|
A#|--------------------------------------------------------------------------------x----------------|
F#|--14-x-14-x-14-x-14-x-14-12-x-12-x-12-x-12-x-12-x-10h14-x-14-x-14-x-14-x-14-14--x----------------|
C#|--0--x-0--x-0--x-0--x-0--0--x-0--x-0--x-0--x-0--x-0--0--x-0--x-0--x-0--x-0--0---x-5\-------------|
G#|--------------------------------------------------------------------------------x-5\-------------|
C#|--------------------------------------------------------------------------------x-5\-------------|

[Verse 2] Distortion

D#|---------8---------8-----------------------------------------------------------------------------|
A#|-------------------------------------------------------------------------------------------------|
F#|--12^14-----12^14----14r12--12--11^12r11-11\9~~~--------9-------11----12----11~--Let-------------|
C#|-----------------------------------------12\10~~----/10---10/12----12----12-12~--Ring------------|
G#|-------------------------------------------------------------------------------------------------|
C#|-------------------------------------------------------------------------------------------------|

D#|---x---x---x-x-x---x---x---x--------------------------------------------------------------------------|
A#|---x---x---x-x-x---x---x---x-------------------3-----------3------------------------------------------|
F#|-7-x-5-x-7-x-x-x---x---x---x-------------------2--5--5--7--2--5--5--8---------------------------------|
C#|-7-x-5-x-7-x-x-x-6-x-6-x-5-x----5*-------------0--3--5--5--0--3--5--6---------------------------------|
G#|-5-x-3-x-5-x-x-x-6-x-6-x-5-x------------(x4)---0--3--3--5--0--3--3--6---------------------------------|
C#|---x---x---x-x-x-6-x-6-x-5-x-5*----5*----------0--3-----5--0--3-----6---------------------------------|


[Chorus] Distortion

D#|-------------------------------------------------------------------------------------------------|
A#|-------------------------------------------------------------------------------------------------|
F#|-x-17-14-x-14-x-14-x-14-x-14-12-x-12-x-12-x-12--x-10h14-x-14-x-14-x-14-x-12-17-x-17-x-17-x-12-14-|
C#|-x-0--0--x-0--x-0--x-0--x-0--0--x-0--x-0--x-0---x-0--0--x-0--x-0--x-0--x-0--0--x-0--x-0--x-0--0--|
G#|-------------------------------------------------------------------------------------------------|
C#|-------------------------------------------------------------------------------------------------|

D#|------------------------------------------------------------------------------------------------------|
A#|------------------------------------------------------------------------------------------------------|
F#|--14-x-14-x-14-x-14-x-14-12-x-12-x-12-x-12-x-12-x-10h14-x-14-x-14-x-14-x-14-14-x-14-17-x-17-x-17-x-17-|
C#|--0--x-0--x-0--x-0--x-0--0--x-0--x-0--x-0--x-0--x-0--0--x-0--x-0--x-0--x-0--0--x-0--0--x-0--x-0--x-0--|
G#|------------------------------------------------------------------------------------------------------|
C#|------------------------------------------------------------------------------------------------------|

[Bridge] Clean with Flanger (This part was hard to decipher)

"I know it's only killing both of us..."
D#|------------------------------------------------------------------------------------------------------|
A#|-----6---5----3-----5----6----------------------------------------------------------------------------|
F#|-------5--------5----------------0---2---2---2---------0---2--2----2---0------------------------------|
C#|-3-3-------3------3---3-----5--5---5-------5-----5--5----5-------5---5--------------------------------|
G#|------------------------------------------------------------------------------------------------------|
C#|------------------------------------------------------------------------------------------------------|

"You're not immune..."
D#|-----------------------------------------------------3--------------------|
A#|-------6---5---3-----5---6----3-----3-------------------------------------|
F#|---------5-------5--------------5-----5----------5------------------------|
C#|---3-3-------3-----3---3----5-----5-----5--3--3----3----------------------|
G#|--------------------------------------------------------------------------|
C#|--------------------------------------------------------------------------|

[Bridge Continued] Distortion

"Up..."
D#|------------------------------------------------------------------------------------------------------|
A#|------------------------------------------------------------------------------------------------------|
F#|--14-14-14-14-14-14-14-14-14-12-x-12-x-12-x-12-12-14-7-7-7-7-7-7-7-7-7-14-17-x-17-x-17-x-17-x-17-17---|
C#|--0--0--0--0--0--0--0--0--0--0--x-0--x-0--x-0--0--0--0-0-0-0-0-0-0-0-0-0--0--x-0--x-0--x-0--x-0--0----|
G#|------------------------------------------------------------------------------------------------------|
C#|-[PM- - - - - - - - - - ]-----------------------------[PM - - - - - - ]-------------------------------|

D#|------------------------------------------------------------------------------------------------------|
A#|------------------------------------------------------------------------------------------------------|
F#|--14-14-14-14-14-14-14-14-14-12-x-12-x-12-x-12-12-14-7-7-7-7-7-7-7-7-7-14-17-x-17-x-17-x-17-x-17-17---|
C#|--0--0--0--0--0--0--0--0--0--0--x-0--x-0--x-0--0--0--0-0-0-0-0-0-0-0-0-0--0--x-0--x-0--x-0--x-0--0----|
G#|------------------------------------------------------------------------------------------------------|
C#|-[PM- - - - - - - - - - ]-----------------------------[PM - - - - - - ]-------------------------------|

[Chorus]

D#|-------------------------------------------------------------------------------------------------|
A#|-------------------------------------------------------------------------------------------------|
F#|-x-17-14-x-14-x-14-x-14-x-14-12-x-12-x-12-x-12--x-10h14-x-14-x-14-x-14-x-12-17-x-17-x-17-x-12-14-|
C#|-x-0--0--x-0--x-0--x-0--x-0--0--x-0--x-0--x-0---x-0--0--x-0--x-0--x-0--x-0--0--x-0--x-0--x-0--0--|
G#|-------------------------------------------------------------------------------------------------|
C#|-------------------------------------------------------------------------------------------------|

D#|------------------------------------------------------------------------------------------------------|
A#|------------------------------------------------------------------------------------------------------|
F#|--14-x-14-x-14-x-14-x-14-12-x-12-x-12-x-12-x-12-x-10h14-x-14-x-14-x-14-x-14-14-x-14-17-x-17-x-17-x-17-|
C#|--0--x-0--x-0--x-0--x-0--0--x-0--x-0--x-0--x-0--x-0--0--x-0--x-0--x-0--x-0--0--x-0--0--x-0--x-0--x-0--|
G#|------------------------------------------------------------------------------------------------------|
C#|------------------------------------------------------------------------------------------------------|

[Chorus Continued]

D#|------------------------------------------------------------------------------------------------------|
A#|------------------------------------------------------------------------------------------------------|
F#|----14-14-12-12-11-11-7--7-14-14-12-12-10-10--5--5--14-14-12-12-17-17-14-14-14-14-12-12-17-17-14-14---|
C#|--0-0--0--0--0--0--0--0--0-0--0--0--0--0--0---0--0--0--0--0--0--0--0--0--0--0--0--0--0--0--0--0--0----|
G#|------------------------------------------------------------------------------------------------------|
C#|------------------------------------------------------------------------------------------------------|

D#|------------------------------------------------------------------------------------------------------|
A#|------------------------------------------------------------------------------------------------------|
F#|----14-14-12-12-11-11-7--7-14-14-12-12-10-10--5--5--14-14-12-12-17-17-14-14-14-14-12-12-17-17-14-14---|
C#|--0-0--0--0--0--0--0--0--0-0--0--0--0--0--0---0--0--0--0--0--0--0--0--0--0--0--0--0--0--0--0--0--0----|
G#|------------------------------------------------------------------------------------------------------|
C#|------------------------------------------------------------------------------------------------------|

D#|--14----15----17----15----13----15----17----15----13----15----17----15-----13-----15-----17----15-----|
A#|-----15----15----15----15----15----15----15----15----15----15----15----15------15-----15----15----15--|
F#|------------------------------------------------------------------------------------------------------|
C#|------------------------------------------------------------------------------------------------------|
G#|------------------------------------------------------------------------------------------------------|
C#|------------------------------------------------------------------------------------------------------|

D#|--14----15----17----15----13----15----17----15----13----15----17----15----13\--------|
A#|-----15----15----15----15----15----15----15----15----15----15----15----15------------|
F#|-------------------------------------------------------------------------------------|
C#|-------------------------------------------------------------------------------------|
G#|-------------------------------------------------------------------------------------|
C#|-------------------------------------------------------------------------------------|

            
Submit corrections


        Favorite Disease lessons Hard to play? Try these video lessons and learn fast Favorite Disease lessons
        
↑ Back to top | Tablatures and chords for acoustic guitar and electric guitar, ukulele, drums are parodies/interpretations of the original songs. You may use it for private study, scholarship, research or language learning purposes only