Home » R » Rev Theory »

Rev Theory - Light It Up Bass

Artists:  A B C D E F G H I J K L M N O P Q R S T U V W X Y Z # 

Light It Up Bass

(ver. 1) Click to play this song!
Rev Theory
I'm quite sure about all this. Saw them live and I gotta say...so much better than live.

Intro/Verse
G|---|-------------|--------------------------|
D|---|-------------|--------------------------|
A|---|-------------|----------------4-------3-|
D|-0-|-4-3-0-3-4-0-|-4-3-0-3-4--3-4---4-3-3---|

Chorus __timing is off__
G|------------------------------------------------------|
D|-----------5-5--5-------3-3--3-------1-1--1-----------|
A|------5-----------7-5-3--------5-3-1--------3-1-0-0-0-|
D|-0-0----7-5-------------------------------------------|

Interlude
G|----------------|-----------------------|
D|----------------|------------/66666666--|
A|----------------|-----------------------|
D|-4-4-3-4-4-3-4~-|--44444444-------------|

Solo
G|-------------|--------------------------|
D|-------------|--------------------------|
A|-------------|----------------4-------3-|
D|-4-3-0-3-4-0-|-4-3-0-3-4--3-4---4-3-3---|
            
Submit corrections

↑ Back to top | Tablatures and chords for acoustic guitar and electric guitar, ukulele, drums are parodies/interpretations of the original songs. You may use it for private study, scholarship, research or language learning purposes only