» » »

Revive - Chorus Of The Saints Tabs

Artists:  A B C D E F G H I J K L M N O P Q R S T U V W X Y Z # 

Chorus Of The Saints Tabs

(ver. 1) Click to play this song!
Revive
 Rating:
4.2/5 (5 votes)

 Chorus Of The Saints lessons Tabs too difficult? Try these video lessons and learn fast
 
                I figured this out on acoustic guitar, so you will have to add whatever electric tricks 
God Bless:)

Intro1: (0:00-0:12)
e|--7--9--10--12~--|   x4
B|-----------------|
G|-----------------|
D|-----------------|
A|-----------------|
D|-----------------|

Intro2: (0:12-0:18)
e|-------------------------------------------------|
B|-------------------------------------------------|
G|-------------------------------------------------|
D|--9-9--4-4--5-5--0-0~---9-9--0-2-4-5-5-7-7~------|
A|--9-9--4-4--5-5--0-0~---9-9--0-2-4-5-5-7-7~------|
D|--9-9--4-4--5-5--0-0~---9-9--0-2-4-5-5-7-7~------|

Verse: (0:18-0:31)
e|---------------------------------------------------------|
B|---------------------------------------------------------|
G|---------------------------------------------------------|
D|--9-9-9-9-9-9-9-9-7-7-7-7-7-7-7-7-12-12-0-2-4-0-5-0-0----|
A|--9-9-9-9-9-9-9-9-7-7-7-7-7-7-7-7-12-12-0-2-4-0-5-0-0----|
D|--9-9-9-9-9-9-9-9-7-7-7-7-7-7-7-7-12-12-0-2-4-0-5-0-0----|
    x x x x x x x x x x x x x x x x

Pre-chorus: (0:32-0:44)
e|------------------------------------------------------------------|  x2
B|------------------------------------------------------------------|
G|------------------------------------------------------------------|
D|--4-4-4-4-4-4-4-4-5-5-5-5-5-5-5-5-7-7-7-7-7-7-7-7-7-7-7-7-7-7-7-7-|
A|--4-4-4-4-4-4-4-4-5-5-5-5-5-5-5-5-7-7-7-7-7-7-7-7-7-7-7-7-7-7-7-7-|
D|--4-4-4-4-4-4-4-4-5-5-5-5-5-5-5-5-7-7-7-7-7-7-7-7-7-7-7-7-7-7-7-7-|
    x x x x x x x x x x x x x x x x x x x x x x x x x x x x x x x x

Guitar2:
e|-------------------------------------------------------------------|
B|----------10--------------10--------------10--------------10-------|
G|-------------9---------------9---------------9---------------9-----|
D|---------------12~-------------12/14~----------12~-------------12~-|
A|-------------------------------------------------------------------|
D|-------------------------------------------------------------------|

Chorus: (0:44-1:10)
e|-------------------------------------------------------------------------|
B|-------------------------------------------------------------------------|
G|-------------------------------------------------------------------------|
D|-5-5-5-5-5-5-5-5-7-7-7-7-7-7-7-7-9-9-9-9-9-9-9-9-12-12-12-12-12-12-12-12-|
A|-5-5-5-5-5-5-5-5-7-7-7-7-7-7-7-7-9-9-9-9-9-9-9-9-12-12-12-12-12-12-12-12-|
D|-5-5-5-5-5-5-5-5-7-7-7-7-7-7-7-7-9-9-9-9-9-9-9-9-12-12-12-12-12-12-12-12-|

e|-----------------------------------------------------------------|
B|-----------------------------------------------------------------| both
G|-----------------------------------------------------------------| tabs
D|-5-5-5-5-5-5-5-5-7-7-7-7-7-7-7-7-9-9-9-9-9-9-9-9-9-9-9-9-9-9-9-9-|  x2
A|-5-5-5-5-5-5-5-5-7-7-7-7-7-7-7-7-9-9-9-9-9-9-9-9-9-9-9-9-9-9-9-9-|
D|-5-5-5-5-5-5-5-5-7-7-7-7-7-7-7-7-9-9-9-9-9-9-9-9-9-9-9-9-9-9-9-9-|

Interlude(same as intro2): (1:10-1:16)
e|------------------------------------------------------------------|
B|------------------------------------------------------------------|
G|------------------------------------------------------------------|
D|--9-9--4-4--5-5--0-0~-----------9-9--0-2-4-0-5-7-7~---------------|
A|--9-9--4-4--5-5--0-0~-----------9-9--0-2-4-0-5-7-7~---------------|
D|--9-9--4-4--5-5--0-0~-----------9-9--0-2-4-0-5-7-7~---------------|

Guitar2:
e|-----------------------------11/9-----------------------------|
B|----------------9-9-9-9-11-12------------------7-7-7-7/5-5----|
G|--------------------------------------------------------------|
D|--------------------------------------------------------------|
A|--------------------------------------------------------------|
D|--------------------------------------------------------------|

REPEAT VERSE AND PRE-CHORUS (1:17-1:42)

REPEAT CHORUS (1:42-2:07)

Bridge: (2:07-2:21)
e|------------------------------|
B|------------------------------|
G|------------------------------|
D|--5~--7~--0~----5~--7~--0~----|
A|--5~--7~--0~----5~--7~--0~----|
D|--5~--7~--0~----5~--7~--0~----|

REPEAT CHORUS TAB 3 times (2:22-3:30)
(Intro1 plays in background)

Tag(same has intro2 and interlude): (3:30-3:13..let ring to end)
Guitar2:
e|-------------------------------------------------|
B|--7-7-7-7/5-5~---7-7-7-7-5/3\5~---7-7-7-7/5-5~---|
G|-------------------------------------------------|
D|-------------------------------------------------|
A|-------------------------------------------------|
D|-------------------------------------------------|

If you think its correct, please rate it. If you have any questions or corrections, 
            
Submit corrections


        Chorus Of The Saints lessons Hard to play? Try these video lessons and learn fast Chorus Of The Saints lessons
        
↑ Back to top | Tablatures and chords for acoustic guitar and electric guitar, ukulele, drums are parodies/interpretations of the original songs. You may use it for private study, scholarship, research or language learning purposes only