» » »

Reveille - Perfect World Tabs

Artists:  A B C D E F G H I J K L M N O P Q R S T U V W X Y Z # 

Perfect World Tabs

(ver. 1) Click to play this song!
Reveille
 Rating:
4.4/5 (14 votes)

 Perfect World lessons Tabs too difficult? Try these video lessons and learn fast
 
                [Part A]

E|----------------------------------|-----------------------------|
B|----------------------------------|-----------------------------|
G|----------------------------------|-----------------------------|
D|----0----6p5-----0-----3----2-----|--0----2h3-----0-----5----6--|
A|----0----6p5-----0-----3----2-----|--0----2h3-----0-----5----6--|
D|----0----6p5-----0-----3----2-----|--0----2h3-----0-----5----6--|

(bass)

E|-------------------------------------------------------------------|
B|-------------------------------------------------------------------|
G|-------------------------------------------------------------------|
D|------3---|---3----------------------------------------------------|
A|------3---|---3----------------------------------------------------|
D|------3---|---3----------------------------------------------------|


[Part B]

E|-------------------------------------------------------------|
B|-------------------------------------------------------------|
G|-------------------------------------------------------------|
D|----0----2h3-----0----6p5----0----7p6----0----5p0----3-------|
A|----0----2h3-----0----6p5----0----7p6----0----5p0----3-------|
D|----0----2h3-----0----6p5----0----7p6----0----5p0----3-------|

(VS)

E|--------------------------------------------------------------------|
B|-------14------14-------14-----14-----------------------------------|
G|--------------------------------------------------------------------|
D|--------------------------------------------------------------------|
A|--------------------------------------------------------------------|
D|--------------------------------------------------------------------|

E|----------------------------------------------------------------|
B|----------------------------------------------------------------|
G|----------------------------------------------------------------|
D|---4/5---5/6-----6/7--------------------------------------------|
A|---4/5---5/6-----6/7--------------------------------------------|
D|---4/5---5/6-----6/7--------------------------------------------|

(Repeat  Part a  and then  part  b)

E|-----------------------------------------|----------------------------|
B|-----------------------------------------|----------------------------|
G|-----------------------------------------|----------------------------|
D|-----------------------------------------|----------------------------|
A|------5--5--5--5-------5--4--5--3--------|----4--------4--0--4--5-----|
D|-----------------------------------------|----------------------------|

E|------------------------|-------------------||--------------|
B|------------------------|-------------------||--------------|
G|------------------------|-------------------||--------------|
D|----2h3----3h5----5h6---|---6p5-----5p3-----||-----0--------|
A|----2h3----3h5----5h6---|---6p5-----5p3-----||-----0--------|
D|----2h3----3h5----5h6---|---6p5-----5p3-----||-----0--------|            
Submit corrections


        Perfect World lessons Hard to play? Try these video lessons and learn fast Perfect World lessons
        
↑ Back to top | Tablatures and chords for acoustic guitar and electric guitar, ukulele, drums are parodies/interpretations of the original songs. You may use it for private study, scholarship, research or language learning purposes only