» » »

Reveille - Modified Lie Tabs

Artists:  A B C D E F G H I J K L M N O P Q R S T U V W X Y Z # 

Modified Lie Tabs

(ver. 1) Click to play this song!
Reveille
 Rating:
4.4/5 (17 votes)

 Modified Lie lessons Tabs too difficult? Try these video lessons and learn fast
 
                [Riff 1]

Eb|-----------------------------------------------------------------|
Bb|-----------------------------------------------------------------|
Gb|-----------------------------------------------------------------|
Db|-7-7-7---------------------------6-6-6---------------------------|
Ab|-------8-8-8-7-7-7-5-5-5-7-7-8-8-------8-8-8-7-7-7-5-5-5-7-7-8-8-|
Db|-----------------------------------------------------------------|
PM - - - - - - - - - - - - - - - - - - - - - - - - - - - - - - - -


[Riff 2]

Eb|-------------------------------------------------|
Bb|-------------------------------------------------|
Gb|-------------------------------------------------|
Db|-7----------6----------0----------3----------0-0-|
Ab|-7----------6----------0----------3----------0-0-|
Db|-7----------6----------0----------3----------0-0-|
 PM                                             - -


[Riff 3]

Eb|-----------------------------------------------------------------|
Bb|-----------------------------------------------------------------|
Gb|-2---------------------------------------------------------------|
Db|-2-----3-----2-----0-----2---3---6-----3-----2-----0-----2---3---|
Ab|-0-----3-----2-----0-----2---3---6-----3-----2-----0-----2---3---|
Db|-------3-----2-----0-----2---3---6-----3-----2-----0-----2---3---|


[Riff 4]

Eb|----------------------------------------------|
Bb|-10---------9----------3----------6-----------|
Gb|----------------------------------------------|
Db|----------------------------------------------|
Ab|----------------------------------------------|
Db|----------------------------------------------|


[Riff 5]

Eb|-------------------------------------------------------|
Bb|-------------------------------------------------------|
Gb|-------------------------------------------------------|
Db|-0-7-0-3-----2-----0---2-3---0-6-0-3-----2-----0---3-6-|
Ab|-0-7-0-3-----2-----0---2-3---0-6-0-3-----2-----0---3-6-|
Db|-0-7-0-3-----2-----0---2-3---0-6-0-3-----2-----0---3-6-|


[Riff 6]

Eb|---------------------|
Bb|---------------------|
Gb|-2--------2----------|
Db|-2--0--3--2--0-3/6---|
Ab|-0--0--3--0--0-3/6---|
Db|----0--3-----0-3/6---|


[Riff 7] 

(clean w/ reverb)
Eb|------------------------|
Bb|-----10-9------10-6-5-3-|
Gb|---9---------9----------|
Db|-7---------7------------|
Ab|------------------------|
Db|------------------------|


[Riff 8]

Eb|-------------------------|
Bb|-------------------------|
Gb|-2------------2----------|
Db|-2--0--3-x-x--2--0-3/6---|
Ab|-0--0--3-x-x--0--0-3/6---|
Db|----0--3-x-x-----0-3/6---|


[Riff 9]

Eb|---------------------------------------------------------------|
Bb|---------------------------------------------------------------|
Gb|---------------------------------------------------------------|
Db|-0-2-3-0-2-3-x-x-0-2-3-0-2-3-x-x-0-2-3-0-2-3-x-x-0-2-3-0-2-3/7-|
Ab|-0-2-3-0-2-3-x-x-0-2-3-0-2-3-x-x-0-2-3-0-2-3-x-x-0-2-3-0-2-3/7-|
Db|-0-2-3-0-2-3-x-x-0-2-3-0-2-3-x-x-0-2-3-0-2-3-x-x-0-2-3-0-2-3/7-|
PM           -               -               -


[Riff 10]

Eb|----------------------------------------------------------------|
Bb|----------------------------------------------------------------|
Gb|----------------------------------------------------------------|
Db|-0-2-3-0-2-3-x-x-0-2-3-0-2-3-x-x-0-2-3-0-2-3-x-x-3-00-3-00-3-00-|
Ab|-0-2-3-0-2-3-x-x-0-2-3-0-2-3-x-x-0-2-3-0-2-3-x-x-3-00-3-00-3-00-|
Db|-0-2-3-0-2-3-x-x-0-2-3-0-2-3-x-x-0-2-3-0-2-3-x-x-3-00-3-00-3-00-|
 PM           -               -               -     - -- - -- - --


[Riff 11]

Eb|----------------|
Bb|----------------|
Gb|----------------|
Db|-0-7-6--0-6-0-6-|
Ab|-0-7-6--0-6-0-6-|
Db|-0-7-6--0-6-0-6-|


[Riff 12]

Eb|----------------|
Bb|----------------|
Gb|----------------|
Db|-0-7-6--0-6-0-3-|
Ab|-0-7-6--0-6-0-3-|
Db|-0-7-6--0-6-0-3-|
 PM              -            
Submit corrections


        Modified Lie lessons Hard to play? Try these video lessons and learn fast Modified Lie lessons
        
↑ Back to top | Tablatures and chords for acoustic guitar and electric guitar, ukulele, drums are parodies/interpretations of the original songs. You may use it for private study, scholarship, research or language learning purposes only