» » »

Reveille - Derelict Tabs

Artists:  A B C D E F G H I J K L M N O P Q R S T U V W X Y Z # 

Derelict Tabs

(ver. 1) Click to play this song!
Reveille
 Rating:
4.3/5 (23 votes)

 Derelict lessons Tabs too difficult? Try these video lessons and learn fast
 
                [Part 1]

D#|----------------------------------------------------|----|
A#|----------------------------------------------------|----|
F#|----------------------------------------------------|----|
C#|-0-0-0-6-6-6-0-0-0-6-6-6-0-0-0-6-6-6-0-0-0-6-6-6----|--x3|
G#|-0-0-0-6-6-6-0-0-0-6-6-6-0-0-0-6-6-6-0-0-0-6-6-6----|----|
C#|-0-0-0-6-6-6-0-0-0-6-6-6-0-0-0-6-6-6-0-0-0-6-6-6----|----|


[Part 2]

D#|----------------------------------------------------|-----|
A#|----------------------------------------------------|-----|
F#|----------------------------------------------------|-----|
C#|-0--3--0-5--3--0-5-5--------------------------------|--4x-|
G#|-0--3--0-5--3--0-5-5--------------------------------|-----|
C#|-0--3--0-5--3--0-5-5--------------------------------|-----|


[Part 3]

D#|---------------------------------------------------------|
A#|---------------------------------------------------------|
F#|--------------------5---------------------------5~7~4----|
C#|-5-3-0------5-3-0---5---5-3-0---0-0-0-0--5-3-0-----------|
G#|-5-3-0------5-3-0---3---5-3-0---0-0-0-0--5-3-0-----------|
C#|-5-3-0------5-3-0-------5-3-0---0-0-0-0--5-3-0-----------|
                               pm pm pm


D#|----------------------------------------------------------|
A#|----------------------------------------------------------|
F#|---------------------5-------------------------------7----|
C#|-5-3-0-------5-3-0---5---5-3-0---0-0-0-0--5-3-0---7-------|
G#|-5-3-0-------5-3-0---3---5-3-0---0-0-0-0--5-3-0---5-------|
C#|-5-3-0-------5-3-0-------5-3-0---0-0-0-0--5-3-0-----------|
                                pm pm pm

 [Part 1]    2x

 [Part 3]    1x
 
 [Part 1]    2x

 [Part 2]    8x


[Part 4]

D#|----------------------------------------------------|-----|
A#|----------------------------------------------------|-----|
F#|-8-7--5-7--8-7--5-7--8-7--5-7--8-7--5-7-------------|-----|
C#|-8-7--5-7--8-7--5-7--8-7--5-7--8-7--5-7-------------|--2x-|
G#|-6-5--3-5--6-5--3-5--6-5--3-5--6-5--3-5-------------|-----|
C#|----------------------------------------------------|-----|


[Part 5]

D#|------------------------------|-------------------------------|
A#|------------------------------|-------------------------------|
F#|------------------------------|-------------------------------|
C#|-0-0-0-3-4-5---0-0-0-3-4-5-8--|3x--0-0-0-3-4-5---0-0-0-3-4-5-1|
G#|-0-0-0-3-4-5---0-0-0-3-4-5-8--|----0-0-0-3-4-5---0-0-0-3-4-5-1|
C#|-0-0-0-3-4-5---0-0-0-3-4-5-8--|----0-0-0-3-4-5---0-0-0-3-4-5-1|

D#|--------------------------------------------------------------|
A#|--------------------------------------------------------------|
F#|--------------------------------------------------------------|
C#|-0-0-0-3-4-5---0-0-0-3-4-5---0-0-0-3-4-5---0-0-0-3-4-5-8------|
G#|-0-0-0-3-4-5---0-0-0-3-4-5---0-0-0-3-4-5---0-0-0-3-4-5-8------|
C#|-0-0-0-3-4-5---0-0-0-3-4-5---0-0-0-3-4-5---0-0-0-3-4-5-8------|


[Part 6]

D#|-----------------------------------------------------------|--|
A#|-----------------------------------------------------------|--|
F#|-----------------------------------------------------------|--|
C#|-0-0-0-3-4-5---0-0-0-3-4-5-8---0-0-0-3-4-5---0-0-0-3-4-5-1-|2x|
G#|-0-0-0-3-4-5---0-0-0-3-4-5-8---0-0-0-3-4-5---0-0-0-3-4-5-1-|--|
C#|-0-0-0-3-4-5---0-0-0-3-4-5-8---0-0-0-3-4-5---0-0-0-3-4-5-1-|--|


[Part 1] 2x


[Part 7]

D#|----------------------------------------------------------|
A#|----------------------------------------------------------|
F#|----------------------------------------------------------|
C#|-0-0-0-0-6--0-0-0-0-6--0-0-0-0-6--0-0-0-6-----------------|
G#|-0-0-0-0-6--0-0-0-0-6--0-0-0-0-6--0-0-0-6-----------------|
C#|-0-0-0-0-6--0-0-0-0-6--0-0-0-0-6--0-0-0-6-----------------|            
Submit corrections


        Derelict lessons Hard to play? Try these video lessons and learn fast Derelict lessons
        
↑ Back to top | Tablatures and chords for acoustic guitar and electric guitar, ukulele, drums are parodies/interpretations of the original songs. You may use it for private study, scholarship, research or language learning purposes only