Home » R » Reparata »

Reparata - Your Life Is Gone Bass

Artists:  A B C D E F G H I J K L M N O P Q R S T U V W X Y Z # 

Your Life Is Gone Bass

(ver. 1) Click to play this song!
Reparata
 Rating:
4.3/5 (19 votes)
                
Tuning: EADG

G|----------------------------------------------------------------|
D|0-----------0---0---------------0-----------0---0---------------|
A|----------------------------------------------------------------|
E|----------------------------------------------------------------|

G|----------------------------------------------------------------|
D|0-----------0---0---------------0-----------0---0---------------|
A|--------------------------------------------------------0-------|
E|----------------------------------------------------------------|

0:08

G|----------------------------------------------------------------|.
D|0---0---0---2---0---------------0---0---0---2---0---------------|.
A|------------------------0-------------------------------2-------|.
E|----------------------------------------------------------------|.
                                                                   . x2
G|--------------------------------2---2---2---4---2---------------|.
D|2---2---2---4---2---------------------------------------2-------|.
A|------------------------2---------------------------------------|.
E|----------------------------------------------------------------|.

0:23

G|4---4---4---6---4-----------------------------------------------|
D|------------------------4-------2---2---2---4---2---------------|
A|--------------------------------------------------------2-------|
E|----------------------------------------------------------------|

G|2---2---2---4---2-----------------------------------------------|
D|------------------------2-------0---0---0---2---0---------------|
A|--------------------------------------------------------0-------|
E|----------------------------------------------------------------|

G|----------------------------------------------------------------|
D|--------------------------------2---2---2---4---2---------------|
A|2---2---2---4---2---------------------------------------2-------|
E|------------------------2---------------------------------------|

G|----------------------------------------------------------------|
D|2---2---2---4---2-------------------------------0---0---2---1---|
A|------------------------2-------0---0---4---4-------------------|
E|----------------------------------------------------------------|

0:38

G|----------------------------------------------------------------|.
D|0---0---0---2---0---------------0---0---0---2---0---------------|.
A|------------------------0-------------------------------2-------|.
E|----------------------------------------------------------------|.
                                                                   . x2
G|--------------------------------2---2---2---4---2---------------|.
D|2---2---2---4---2---------------------------------------2-------|.
A|------------------------2---------------------------------------|.
E|----------------------------------------------------------------|.

0:53

G|4---4---4---6---4-----------------------------------------------|
D|------------------------4-------2---2---2---4---2---------------|
A|--------------------------------------------------------2-------|
E|----------------------------------------------------------------|

G|2---2---2---4---2-----------------------------------------------|
D|------------------------2-------0---0---0---2---0---------------|
A|--------------------------------------------------------0-------|
E|----------------------------------------------------------------|

G|----------------------------------------------------------------|
D|--------------------------------2---2---2---4---2---------------|
A|2---2---2---4---2---------------------------------------2-------|
E|------------------------2---------------------------------------|

G|----------------------------------------------------------------|
D|2---2---2---4---2-------------------------------0---0---2---1---|
A|------------------------2-------0---0---4---4-------------------|
E|----------------------------------------------------------------|

1:09

G|----------------------------------------------------------------|.
D|0---0---0---2---0---------------0---0---0---2---0---------------|.
A|------------------------0-------------------------------2-------|.
E|----------------------------------------------------------------|.
                                                                   .
G|----------------------------------------------------------------|.
D|2---2---2---4---2---------------2---2---2---4---2---------------|.
A|------------------------2-------------------------------2-------|.
E|----------------------------------------------------------------|.
                                                                   . x2
G|0---0---0---2---0---------------0---0---0---2---0---------------|.
D|------------------------0-------------------------------0-------|.
A|----------------------------------------------------------------|.
E|----------------------------------------------------------------|.
                                                                   .
G|--------------------------------2---2---------------------------|.
D|0---0---0---2---0-----------------------------------------------|.
A|------------------------0---------------0---0---2---2---3---4---|.
E|----------------------------------------------------------------|.



1:50

G|----------------------------------------------------------------|.
D|0---0---0---2---0---------------0---0---0---2---0---------------|.
A|------------------------0-------------------------------2-------|.
E|----------------------------------------------------------------|.
                                                                   . x2
G|--------------------------------2---2---2---4---2---------------|.
D|2---2---2---4---2---------------------------------------2-------|.
A|------------------------2---------------------------------------|.
E|----------------------------------------------------------------|.

2:05

G|4---4---4---6---4-----------------------------------------------|
D|------------------------4-------2---2---2---4---2---------------|
A|--------------------------------------------------------2-------|
E|----------------------------------------------------------------|

G|2---2---2---4---2-----------------------------------------------|
D|------------------------2-------0---0---0---2---0---------------|
A|--------------------------------------------------------0-------|
E|----------------------------------------------------------------|

G|----------------------------------------------------------------|
D|--------------------------------2---2---2---4---2---------------|
A|2---2---2---4---2---------------------------------------2-------|
E|------------------------2---------------------------------------|

G|----------------------------------------------------------------|
D|2---2---2---4---2-------------------------------0---0---2---1---|
A|------------------------2-------0---0---4---4-------------------|
E|----------------------------------------------------------------|

2:20

G|----------------------------------------------------------------|
D|0---0---0---2---0---------------0---0---0---2---0---------------|
A|------------------------0-------------------------------2-------|
E|----------------------------------------------------------------|

G|----------------------------------------------------------------|
D|2---2---2---4---2---------------2---2---2---4---2---------------|
A|------------------------2-------------------------------2-------|
E|----------------------------------------------------------------|

G|0---0---0---2---0---------------0---0---0---2---0---------------|
D|------------------------0-------------------------------0-------|
A|----------------------------------------------------------------|
E|----------------------------------------------------------------|

G|--------------------------------2---2---------------------------|
D|0---0---0---2---0-----------------------------------------------|
A|------------------------0---------------0---0---2---2---3---4---|
E|----------------------------------------------------------------|

2:35 Until fadeout.

G|----------------------------------------------------------------|
D|0---0---0---2---0---------------0---0---0---2---0---------------|
A|------------------------0-------------------------------2-------|
E|----------------------------------------------------------------|

G|----------------------------------------------------------------|
D|2---2---2---4---2---------------2---2---2---4---2---------------|
A|------------------------2-------------------------------2-------|
E|----------------------------------------------------------------|

G|0---0---0---2---0---------------0---0---0---2---0---------------|
D|------------------------0-------------------------------0-------|
A|----------------------------------------------------------------|
E|----------------------------------------------------------------|

G|--------------------------------2---2---0---0-------------------|
D|0---0---0---2---0-------------------------------4---4---2---1---|
A|------------------------0---------------------------------------|
E|----------------------------------------------------------------|            
Submit corrections

↑ Back to top | Tablatures and chords for acoustic guitar and electric guitar, ukulele, drums are parodies/interpretations of the original songs. You may use it for private study, scholarship, research or language learning purposes only