Home » R » Reparata »

Reparata - Jesibee Dancer The Belly Dancer Bass

Artists:  A B C D E F G H I J K L M N O P Q R S T U V W X Y Z # 

Jesibee Dancer The Belly Dancer Bass

(ver. 1) Click to play this song!
Reparata
 Rating:
4.3/5 (18 votes)
                
0:14

G|----------------------------------------------------------------|
D|----------------------------------------------------------------|
A|6---------------------------------------------------------------|
E|----------------------------------------------------------------|

G|----------------------------------------------------------------|
D|--------------------------------7---------------7---------------| x2
A|6---------------6-----------------------7---------------7-------|
E|--------6---------------6---------------------------------------|

G|--------------------------------|
D|7---------------7---------------|
A|--------7---------------7-------|
E|--------------------------------|

G|----------------------------------------------------------------|
D|6---------------6---------------6---------------6---------------|
A|--------6---------------6---------------6---------------6-------|
E|----------------------------------------------------------------|

G|----------------------------------------------------------------|
D|----------------------------------------------------------------|
A|6---------------6---------------6---6---------------------------|
E|--------6---------------6---------------6---6---7---7---6-------|

0:35

G|----------------------------------------------------------------|
D|--------------------------------7---------------7---------------| x2
A|6---------------6-----------------------7---------------7-------|
E|--------6---------------6---------------------------------------|

G|--------------------------------|
D|7---------------7---------------|
A|--------7---------------7-------|
E|--------------------------------|

G|----------------------------------------------------------------|
D|6---------------6---------------6---------------6---------------|
A|--------6---------------6---------------6---------------6-------|
E|----------------------------------------------------------------|

G|----------------------------------------------------------------|
D|----------------------------------------------------------------|
A|6---------------6---------------6---------------6---------------|
E|--------6---------------6---------------6---------------6-------|

0:52

G|----------------------------------------------------------------|
D|------------------------4---6---------------------------8---9---|
A|7---------------------------------------------------------------|
E|----------------------------------------------------------------|

G|--------------------------------|
D|--------------------------------|
A|------------------------4---6---|
E|--------------------------------|

G|----------------------------------------------------------------|
D|----------------------------------------------------------------|
A|----------------------------------------------------------------|
E|----------------------------------------------------------------|

1:02

G|----------------------------------------------------------------|
D|----------------------------------------------------------------| x2
A|6---------------6---------------6---------------7-------6-------|
E|--------6---------------6---------------6-----------------------|

G|----------------------------------------------------------------|
D|----------------------------------------------------------------|
A|6---------------7-------6-------6---------------7-------6---/---|
E|--------6-------------------------------6-----------------------|

G|----------------------------------------------------------------|
D|----------------------------------------------------------------|
A|11------------------------------------------------------11--\---|
E|----------------------------------------------------------------|

G|----------------------------------------------------------------|
D|----------------------------------------------------------------|
A|6-------6-------6-------6-------6-------6-------7-------6-------|
E|----------------------------------------------------------------|

1:20

G|----------------------------------------------------------------|
D|--------------------------------7---------------7---------------| x2
A|6---------------6-----------------------7---------------7-------|
E|--------6---------------6---------------------------------------|

G|--------------------------------|
D|7---------------7---------------|
A|--------7---------------7-------|
E|--------------------------------|

G|----------------------------------------------------------------|
D|6---------------6---------------6---------------6---------------|
A|--------6---------------6---------------6---------------6-------|
E|----------------------------------------------------------------|

G|----------------------------------------------------------------|
D|----------------------------------------------------------------|
A|6---------------6---------------6---6---------------------------|
E|--------6---------------6---------------6---6---7---7---6-------|

1:37

G|----------------------------------------------------------------|
D|--------------------------------7---------------7---------------| x2
A|6---------------6-----------------------7---------------7-------|
E|--------6---------------6---------------------------------------|

G|--------------------------------|
D|7---------------7---------------|
A|--------7---------------7-------|
E|--------------------------------|

G|----------------------------------------------------------------|
D|6---------------6---------------6---------------6---------------|
A|--------6---------------6---------------6---------------6-------|
E|----------------------------------------------------------------|

G|----------------------------------------------------------------|
D|----------------------------------------------------------------|
A|6---------------6---------------6---------------6---------------|
E|--------6---------------6---------------6---------------6-------|

1:54

G|----------------------------------------------------------------|
D|------------------------4---6---------------------------8---9---|
A|7---------------------------------------------------------------|
E|----------------------------------------------------------------|

G|----------------------------------------------------------------|
D|----------------------------------------------------------------|
A|------------------------4---6-----------------------------------|
E|----------------------------------------------------------------|

G|------------------------------------------------6---------------|
D|6---------------6-----------------------6-----------------------|
A|--------6---------------6-------4-----------------------4-------|
E|----------------------------------------------------------------|

G|------------------------------------------------6-------------------|
D|6---------------6-----------------------6-----------------------6---|
A|--------6---------------6-------4-----------------------4-----------|
E|--------------------------------------------------------------------|            
Submit corrections

↑ Back to top | Tablatures and chords for acoustic guitar and electric guitar, ukulele, drums are parodies/interpretations of the original songs. You may use it for private study, scholarship, research or language learning purposes only