Home » R » Reparata »

Reparata - I Found My Place Bass

Artists:  A B C D E F G H I J K L M N O P Q R S T U V W X Y Z # 

I Found My Place Bass

(ver. 1) Click to play this song!
Reparata
 Rating:
4.3/5 (18 votes)
                
Tuning: EADG

G|----------------------------------------------------------------|
D|----------------------------------------------------------------|
A|----------------------------------------------------------------|
E|5-----------5---5---------------5-----------5---5---------------|

0:04

G|----------------------------------------------------------------|
D|----------------------------------------------------------------| x2
A|----------------------------------------------------------------|
E|5-----------5---5---------------5-----------5---5---------------|

G|----------------------------------------------------------------|
D|----------------------------------------------------------------|
A|5-----------5---5---------------5-----------5---5---------------|
E|----------------------------------------------------------------|

G|----------------------------------------------------------------|
D|----------------------------------------------------------------|
A|5-----------5---5---------------5-----------5-------------------|
E|------------------------------------------------7---------------|

G|--------------------------------|
D|--------------------------------|
A|--------------------------------|
E|7-----------7---7---------------|

G|----------------------------------------------------------------|
D|--------------------9---9---------------------------------------|
A|7-----------7---------------------------------------------------|
E|--------------------------------5-----------5-------5---5---5---|

G|----------------------------------------------------------------|
D|----------------------------------------------------------------|
A|5-----------5-------------------5-------------------------------|
E|--------------------5---5---5-----------------------------------|

0:28

G|----------------------------------------------------------------|
D|----------------------------------------------------------------| x2
A|----------------------------------------------------------------|
E|5-----------5---5---------------5-----------5---5---------------|

G|----------------------------------------------------------------|
D|----------------------------------------------------------------|
A|5-----------5---5---------------5-----------5---5---------------|
E|----------------------------------------------------------------|

G|----------------------------------------------------------------|
D|----------------------------------------------------------------|
A|5-----------5---5---------------5-----------5-------------------|
E|------------------------------------------------7---------------|

G|--------------------------------|
D|--------------------------------|
A|--------------------------------|
E|7-----------7---7---------------|

G|----------------------------------------------------------------|
D|--------------------9---9---------------------------------------|
A|7-----------7---------------------------------------------------|
E|--------------------------------5-----------5-------5---5---5---|

G|----------------------------------------------------------------|
D|----------------------------------------------------------------|
A|5-----------5-------------------5-------------------------------|
E|--------------------5---5---5-----------------------------------|

0:53

G|----------------------------------------------------------------|
D|----------------------------------------------------------------|
A|9-----------9---9-----------------------------------------------|
E|--------------------------------7-----------7---7---------------|

G|----------------------------------------------------------------|
D|----------------------------------------------------------------|
A|----------------------------------------------------------------|
E|7-----------7---7---------------7-----------7---7---------------|

G|----------------------------------------------------------------|
D|----------------------------------------------------------------|
A|7-----------7---7---------------7-----------7---7---------------|
E|----------------------------------------------------------------|

G|----------------------------------------------------------------|
D|----------------------------------------------------------------|
A|----------------------------------------------------------------|
E|5-----------5---5---------------5-----------5---5---------------|

1:08

G|----------------------------------------------------------------|
D|----------------------------------------------------------------| x2
A|----------------------------------------------------------------|
E|5-----------5---5---------------5-----------5---5---------------|

G|----------------------------------------------------------------|
D|----------------------------------------------------------------|
A|5-----------5---5---------------5-----------5---5---------------|
E|----------------------------------------------------------------|

G|----------------------------------------------------------------|
D|----------------------------------------------------------------|
A|5-----------5---5---------------5-----------5-------------------|
E|------------------------------------------------7---------------|

G|--------------------------------|
D|--------------------------------|
A|--------------------------------|
E|7-----------7---7---------------|

G|----------------------------------------------------------------|
D|--------------------9---9---------------------------------------|
A|7-----------7---------------------------------------------------|
E|--------------------------------5-----------5-------5---5---5---|

G|----------------------------------------------------------------|
D|----------------------------------------------------------------|
A|5-----------5-------------------5-------------------------------|
E|--------------------5---5---5-----------------------------------|

1:32

G|----------------------------------------------------------------|
D|----------------------------------------------------------------|
A|----------------------------------------------------------------|
E|5-----------5---5---------------5-----------5---5---------------|

G|----------------------------------------------------------------|
D|----------------------------------------------------------------|
A|----------------------------------------------------------------|
E|5-----------5---5---------------5-----------5---5---------------|

G|----------------------------------------------------------------|
D|----------------------------------------------------------------|
A|5-----------5---5---------------5-----------5---5---------------|
E|----------------------------------------------------------------|

G|----------------------------------------------------------------|
D|----------------------------------------------------------------|
A|5-----------5---5---------------5-----------5-------------------|
E|------------------------------------------------7---------------|

G|--------------------------------|
D|--------------------------------|
A|--------------------------------|
E|7-----------7---7---------------|

1:49 Until fadeout.

G|----------------------------------------------------------------|
D|--------------------9---9---------------------------------------|
A|7-----------7---------------------------------------------------|
E|--------------------------------5-----------5-------5---5---5---|

G|----------------------------------------------------------------|
D|----------------------------------------------------------------|
A|5-----------5---------------------------------------9---9-------|
E|--------------------5---5---5---7-----------7-------------------|            
Submit corrections

↑ Back to top | Tablatures and chords for acoustic guitar and electric guitar, ukulele, drums are parodies/interpretations of the original songs. You may use it for private study, scholarship, research or language learning purposes only