Home » R » Reparata »

Reparata - A Summer Thought Bass

Artists:  A B C D E F G H I J K L M N O P Q R S T U V W X Y Z # 

A Summer Thought Bass

(ver. 1) Click to play this song!
Reparata
 Rating:
4.1/5 (31 vote)
                
Tuning: EADG

G|----------------------------------------------------------------|.
D|----------------------------------------------------------------|.
A|2-----------2---2-------2---------------------------------------|.
E|--------------------------------0-----------0---0-------0-------|.
                                                                   . x2
G|----------------------------------------------------------------|.
D|----------------------------------------------------------------|.
A|----------------------------------------------------------------|.
E|5-----------5---5-------0-------5-----------5---5-------5-------|.

0:15

G|----------------------------------------------------------------|
D|----------------------------------------------------------------|
A|2-----------2---2-----------------------------------------------|
E|------------------------2-------0-----------0---0-------0-------|

G|----------------------------------------------------------------|
D|----------------------------------------------------------------|
A|----------------------------------------------------------------|
E|5-----------5---5-------0-------5-----------5---5-------5-------|

G|----------------------------------------------------------------|
D|----------------------------------------------------------------|
A|2-----------2---2-------2---------------------------------------|
E|--------------------------------0-----------0---0-------0-------|

G|----------------------------------------------------------------|
D|----------------------------------------------------------------|
A|--------------------------------------------------------2-------|
E|5-----------5---5-------0-------5-----------5---5---------------|

0:31

G|----------------------------------------------------------------|
D|----------------------------------------------------------------|
A|4-----------4---4---------------4-----------4---4-------4-------|
E|------------------------4---------------------------------------|

G|----------------------------------------------------------------|
D|----------------------------------------------------------------|
A|5-----------5---5---------------5-----------5---5-------5-------|
E|------------------------5---------------------------------------|

G|----------------------------------------------------------------|
D|----------------------------------------------------------------|
A|2-----------2---2---------------2-----------2---2-------2-------|
E|------------------------2---------------------------------------|

G|----------------------------------------------------------------|
D|2-----------2---2---------------2-----------2---2-------2-------|
A|------------------------2---------------------------------------|
E|----------------------------------------------------------------|

0:46

G|----------------------------------------------------------------|
D|----------------------------------------------------------------|
A|2-----------2---2-------2---------------------------------------|
E|--------------------------------0-----------0---0-------0-------|

G|----------------------------------------------------------------|
D|----------------------------------------------------------------|
A|----------------------------------------------------------------|
E|5-----------5---5-------0-------5-----------5---5-------5-------|

G|----------------------------------------------------------------|
D|----------------------------------------------------------------|
A|2-----------2---2-------2---------------------------------------|
E|--------------------------------0-----------0---0-------0-------|

G|----------------------------------------------------------------|
D|----------------------------------------------------------------|
A|--------------------------------------------------------2-------|
E|5-----------5---5-------0-------5-----------5---5---------------|

1:02

G|----------------------------------------------------------------|
D|----------------------------------------------------------------|
A|4-----------4---4---------------4-----------4---4-------4-------|
E|------------------------4---------------------------------------|

G|----------------------------------------------------------------|
D|----------------------------------------------------------------|
A|5-----------5---5---------------5-----------5---5-------5-------|
E|------------------------5---------------------------------------|

G|----------------------------------------------------------------|
D|----------------------------------------------------------------|
A|2-----------2---2---------------2-----------2---2-------2-------|
E|------------------------2---------------------------------------|

G|----------------------------------------------------------------|
D|2-----------2---2---------------2-----------2---2-------2-------|
A|------------------------2---------------------------------------|
E|----------------------------------------------------------------|

1:17

G|----------------------------------------------------------------|
D|----------------------------------------------------------------| x2
A|5-----------5---5---------------5-----------5---5---------------|
E|------------------------5-------------------------------5-------|

G|----------------------------------------------------------------|
D|----------------------------------------------------------------| x2
A|----------------------------------------------------------------|
E|5-----------5---5-------0-------5-----------5---5-------0-------|

1:32

G|----------------------------------------------------------------|
D|----------------------------------------------------------------| x2
A|5-----------5---5---------------5-----------5---5---------------|
E|------------------------5-------------------------------5-------|

G|----------------------------------------------------------------|
D|----------------------------------------------------------------|
A|----------------------------------------------------------------|
E|5-----------5---5-------4-------2-----------2---2-------2-------|

G|----------------------------------------------------------------|
D|----------------0-------1-------2-------------------------------|
A|2-------4-------------------------------------------------------|
E|----------------------------------------------------------------|

1:48

G|----------------------------------------------------------------|
D|----------------------------------------------------------------|
A|2-----------2---2-------2---------------------------------------|
E|--------------------------------0-----------0---0-------0-------|

G|----------------------------------------------------------------|
D|----------------------------------------------------------------|
A|----------------------------------------------------------------|
E|5-----------5---5-------0-------5-----------5---5-------5-------|

G|----------------------------------------------------------------|
D|----------------------------------------------------------------|
A|2-----------2---2-----------------------------------------------|
E|------------------------2-------0-----------0---0-------0-------|

G|----------------------------------------------------------------|
D|----------------------------------------------------------------|
A|--------------------------------------------------------2-------|
E|5-----------5---5-------0-------5-----------5---5---------------|

2:03

G|----------------------------------------------------------------|
D|----------------------------------------------------------------|
A|4-----------4---4---------------4-----------4---4-------4-------|
E|------------------------4---------------------------------------|

G|----------------------------------------------------------------|
D|----------------------------------------------------------------|
A|5-----------5---5---------------5-----------5---5-------5-------|
E|------------------------5---------------------------------------|

G|----------------------------------------------------------------|
D|----------------------------------------------------------------|
A|2-----------2---2---------------2-----------2---2-------2-------|
E|------------------------2---------------------------------------|

G|----------------------------------------------------------------|
D|2-----------2---2-----------------------------------------------|
A|------------------------2---------------------------------------|
E|--------------------------------0-------------------------------|

2:19 Until fadeout.

G|----------------------------------------------------------------|
D|----------------------------------------------------------------|
A|2-----------2---2-------2---------------------------------------|
E|--------------------------------0-----------0---0-------0-------|

G|----------------------------------------------------------------|
D|----------------------------------------------------------------|
A|----------------------------------------------------------------|
E|5-----------5---5-------0-------5-----------5---5-------5-------|            
Submit corrections

↑ Back to top | Tablatures and chords for acoustic guitar and electric guitar, ukulele, drums are parodies/interpretations of the original songs. You may use it for private study, scholarship, research or language learning purposes only