Home » R » Reo Speedwagon »

Reo Speedwagon - Shakin It Loose Bass

Artists:  A B C D E F G H I J K L M N O P Q R S T U V W X Y Z # 

Shakin It Loose Bass

(ver. 1) Click to play this song!
Reo Speedwagon
 Intro             1st Verse
  Q=156
 4/4
  Gtr I
  E Q  E E E E E    Q.   E H      Q.   E H      Q.   E H
|----------------||-------------|-------------|-------------|
|----------------||-------------|-------------|-------------|
|----------------||-------------|-------------|-------------|
|---5--5-6---7---||-8----8-8----|-5----5-5----|-8----8-8----|


  Q.   E H      Q  Q  Q  Q    Q  Q  Q  Q    Q  Q  Q  Q
|-------------|-------------|-------------|-------------|
|-------------|-------------|-------------|-------------|
|-------------|-------------|-------------|-5--5--5--5--|
|-5----5-5----|-1--1--1--1--|-1--1--1--1--|-------------|


  H     H      Q.   E H      Q.   E H        Q.   E H
|------------|-------------|-------------||--------------|
|------------|-------------|-------------||o-------------|
|-8----10----|-------------|-------------||o-------------|
|------------|-8----8-8----|-8----8-8----||--8----8-8----|


  Q.   E H      Q.   E H      Q.   E H      Q  Q  Q  Q
|-------------|-------------|-------------|-------------|
|-------------|-------------|-------------|-------------|
|-------------|-------------|-------------|-------------|
|-5----5-5----|-8----8-8----|-5----5-5----|-1--1--1--1--|


  Q  Q  Q  Q    Q  Q  Q  Q    H     H      Q.   E H
|-------------|-------------|------------|-------------|
|-------------|-------------|------------|-------------|
|-------------|-5--5--5--5--|-8----10----|-------------|
|-1--1--1--1--|-------------|------------|-8----8-8----|


                Chorus
  Q  Q  Q  Q     Q  Q  Q  Q    Q  Q  Q.   E   +E  E E E Q.   E
|-------------||-------------|--------------|------------------|
|-------------||-------------|--------------|------------------|
|-------------||-------------|-5--5--5----3-|-(3)-3-5-6-3----3-|
|-8--6--5--3--||-1--1--1--1--|--------------|------------------|


  +E  E E E H      Q  Q  Q  Q    Q  Q  Q.   E   +E  E E E Q.   E
|----------------|-------------|--------------|------------------|
|-------3-4-5----|-------------|--------------|------------------|
|-(3)-3----------|-------------|-5--5--5----3-|-(3)-3-5-6-3----3-|
|----------------|-1--1--1--1--|--------------|------------------|


  +E  E E E H      Q  Q  Q  Q    H     H      Q.   E H
|----------------|-------------|------------|-------------|
|-------3-4-5----|-------------|------------|-------------|
|-(3)-3----------|-5--5--5--5--|-8----10----|-------------|
|----------------|-------------|------------|-8----8-8----|


                                      Piano Solo
  1.                2.
  E Q.   E E E E     E Q.   E E E E    Q.   E H      Q.   E H
|-----------------||----------------||-------------|-------------|
|----------------o||----------------||-------------|-------------|
|----------------o||----------------||-------------|-------------|
|-8-5----6---7----||-8-5----6---7---||-8----8-8----|-5----5-5----|


  Q.   E H      Q.   E H      Q  Q  Q  Q    Q  Q  Q  Q
|-------------|-------------|-------------|-------------|
|-------------|-------------|-------------|-------------|
|-------------|-------------|-------------|-------------|
|-8----8-8----|-5----5-5----|-1--1--1--1--|-1--1--1--1--|


                             Guitar Solo
  Q  Q  Q  Q    H     H       Q.   E H      Q.   E H
|-------------|------------||-------------|-------------|
|-------------|------------||-------------|-------------|
|-5--5--5--5--|-8----10----||-------------|-------------|
|-------------|------------||-8----8-8----|-5----5-5----|


  Q.   E H      Q.   E H      Q  Q  Q  Q    Q  Q  Q  Q
|-------------|-------------|-------------|-------------|
|-------------|-------------|-------------|-------------|
|-------------|-------------|-------------|-------------|
|-8----8-8----|-5----5-5----|-1--1--1--1--|-1--1--1--1--|


  Q  Q  Q  Q    Q  Q  Q  Q    W          W
|-------------|-------------|----------|------||
|-------------|-------------|----------|------||
|-------------|-5--5--5--5--|-3--------|-3----||
|-1--1--1--1--|-------------|----------|------||


 Out-Chorus
  Q  Q  Q  Q    Q  Q  Q.   E   +E  E E E Q.   E   +E  E E E H
|-------------|--------------|------------------|----------------|
|-------------|--------------|------------------|-------3-4-5----|
|-------------|-5--5--5----3-|-(3)-3-5-6-3----3-|-(3)-3----------|
|-1--1--1--1--|--------------|------------------|----------------|


  Q  Q  Q  Q    Q  Q  Q.   E   +E  E E E Q.   E   +E  E E E H
|-------------|--------------|------------------|----------------|
|-------------|--------------|------------------|-------3-4-5----|
|-------------|-5--5--5----3-|-(3)-3-5-6-3----3-|-(3)-3----------|
|-1--1--1--1--|--------------|------------------|----------------|


  Q  Q  Q  Q    H    H      Q.   E H      Q.   E H
|-------------|-----------|-------------|-------------|
|-------------|-3----5----|-------------|-------------|
|-5--5--5--5--|-----------|-3----3-3----|-3----3-3----|
|-------------|-----------|-------------|-------------|


  Q  Q  Q  Q    H    H      Q.   E H      Q.   E H
|-------------|-----------|-------------|-------------|
|-------------|-3----5----|-------------|-------------|
|-5--5--5--5--|-----------|-3----3-3----|-3----3-3----|
|-------------|-----------|-------------|-------------|


  Q  Q  Q  Q    H    H      E E +H.        +W           +W
|-------------|-----------|--------------|------------|--------*|
|-------------|-3----5----|--------------|------------|--------*|
|-5--5--5--5--|-----------|---3-(3)------|-(3)--------|-(3)----*|
|-------------|-----------|--------------|------------|--------*|            
Submit corrections

↑ Back to top | Tablatures and chords for acoustic guitar and electric guitar, ukulele, drums are parodies/interpretations of the original songs. You may use it for private study, scholarship, research or language learning purposes only