Home » R » Renaissance »

Renaissance - Northern Lights Tabs

Artists:  A B C D E F G H I J K L M N O P Q R S T U V W X Y Z # 

Northern Lights Tabs

(ver. 1) Click to play this song!
Renaissance
[Intro]
 
___Bsus4_____________________________________
 
e|-0---0-0-0---0-0-0---0-0-0---0-0-0---0-0-0-|
B|-0---0-0-0---0-0-0---0-0-0---0-0-0---0-0-0-|
G|-4---4-4-4---4-4-4---4-4-4---4-4-4---4-4-4-|
D|-4---4-4-4---4-4-4---4-4-4---4-4-4---4-4-4-|
A|-2---2-2-2---2-2-2---2-2-2---2-2-2---2-2-2-|
E|-------------------------------------------|
 
 | 1 - & - 2 - & - 3 - & - 4 - & - 5 - & - 6 |
 
 
___C#m7____________________B_________
 
e|-0---0-0-0---0-0-0---0-0-----------|
B|-0---0-0-0---0-0-0---0-0-4---4-4-4-|
G|-4---4-4-4---4-4-4---4-4-4---4-4-4-|
D|-2---2-2-2---2-2-2---2-2-4---4-4-4-|
A|-4---4-4-4---4-4-4---4-4-2---2-2-2-|
E|-----------------------------------|
 
 | 1 - & - 2 - & - 3 - & - 4 - & - 5 |
 
 
[Riff]
 
___E_______________________________B/E____________________________
 
e|-0---------------0---------------0---0---0---0---0--------------|
B|-0---------------0---------------0---0---0---0---0--------------|
G|-1---------------1---------------8---8---8---8---8--------------|
D|-2---------------2---------------9---9---9---9---9--------------|
A|-2---------------2---------------9---9---9---9---9--------------|
E|---------0---------------0-------------------------------0------|
 
 | 1   -   &   -   2   -   &   -   3   -   &   -   4   -   &   -  |
 
 
___A/E_____________________________B/E____________________________
 
e|-0---------------0---------------0---0---0---0---0--------------|
B|-0---------------0---------------0---0---0---0---0--------------|
G|-6---------------6---------------8---8---8---8---8--------------|
D|-7---------------7---------------9---9---9---9---9--------------|
A|-7---------------7---------------9---9---9---9---9--------------|
E|---------0---------------0-------------------------------0------|
 
 
[Part A]
 
[Verse]
 
___E_______________________________B/E____________________________
  "Des  -  tin  -  a    -  tion    out  -  ward    bound, I..."
e|-0---------------0---------------0---0---0---0---0--------------|
B|-0---------------0---------------0---0---0---0---0--------------|
G|-13--------------13--------------8---8---8---8---8--------------|
D|-14--------------14--------------9---9---9---9---9--------------|
A|-14--------------14--------------9---9---9---9---9--------------|
E|---------0---------------0-------------------------------0------|
 
 
___A/E_____________________________B/E____________________________
  "turn    to      see     the     nor  -  thern   lights  be - "
e|-0---------------0---------------0---0---0---0---0--------------|
B|-0---------------0---------------0---0---0---0---0--------------|
G|-6---------------6---------------8---8---8---8---8--------------|
D|-7---------------7---------------9---9---9---9---9--------------|
A|-7---------------7---------------9---9---9---9---9--------------|
E|---------0---------------0-------------------------------0------|
 
 
___E_______________________________B/E____________________________
" - hind     the           wing..."
e|-0---------------0---------------0---0---0---0---0--------------|
B|-0---------------0---------------0---0---0---0---0--------------|
G|-13--------------13--------------8---8---8---8---8--------------|
D|-14--------------14--------------9---9---9---9---9--------------|
A|-14--------------14--------------9---9---9---9---9--------------|
E|---------0---------------0-------------------------------0------|
 
 
___A/E_____________________________B/E____________________________
 
e|-0---------------0---------------0---0---0---0---0--------------|
B|-0---------------0---------------0---0---0---0---0--------------|
G|-6---------------6---------------8---8---8---8---8--------------|
D|-7---------------7---------------9---9---9---9---9--------------|
A|-7---------------7---------------9---9---9---9---9--------------|
E|---------0---------------0-------------------------------0------|
 
 
Repeat.
 
[Chorus]
 
___E_______________________________B/E____________________________
                  "The     nor     -       thern           lights..."
e|-0---------------0---------------0---0---0---0---0--------------|
B|-0---------------0---------------0---0---0---0---0--------------|
G|-9---------------9---------------8---8---8---8---8--------------|
D|-9---------------9---------------9---9---9---9---9--------------|
A|-7---------------7---------------9---9---9---9---9--------------|
E|---------0---------------0-------------------------------0------|
 
 
___A/E_____________________________B/E____________________________
                  "are     on              my              mind..."
e|-0---------------0---------------0---0---0---0---0--------------|
B|-0---------------0---------------0---0---0---0---0--------------|
G|-6---------------6---------------8---8---8---8---8--------------|
D|-7---------------7---------------9---9---9---9---9--------------|
A|-7---------------7---------------9---9---9---9---9--------------|
E|---------0---------------0-------------------------------0------|
 
 
___E_______________________________B/E____________________________
                  "They    guide           me              back..."
e|-0---------------0---------------0---0---0---0---0--------------|
B|-0---------------0---------------0---0---0---0---0--------------|
G|-9---------------9---------------8---8---8---8---8--------------|
D|-9---------------9---------------9---9---9---9---9--------------|
A|-7---------------7---------------9---9---9---9---9--------------|
E|---------0---------------0-------------------------------0------|
 
 
___A/E_____________________________B/E____________________________
                  "to      you..."
e|-0---------------0---------------0---0---0---0---0--------------|
B|-0---------------0---------------0---0---0---0---0--------------|
G|-6---------------6---------------8---8---8---8---8--------------|
D|-7---------------7---------------9---9---9---9---9--------------|
A|-7---------------7---------------9---9---9---9---9--------------|
E|---------0---------------0-------------------------------0------|
 
 
Repeat part A:
 
Part B: Strum freely...
 
___D/F#____________________________G5_____________________________
  "Though  it's    hard    a   -   way     from    you..."
e|-2---------------2---------------3---------------3--------------|
B|-3---------------3---------------3---------------3--------------|
G|-2---------------2---------------0---------------0--------------|
D|-0---------------0---------------0---------------0--------------|
A|-x---------------x---------------x---------------x--------------|
E|-2---------------2---------------3---------------3--------------|
 
 | 1   -   &   -   2   -   &   -   3   -   &   -   4   -   &   -  |
 
 
___D/A_____________________________G/B____________________________
  "Travelling      roads   and     passing         through, it's..."
e|-2---------------2---------------3---------------3--------------|
B|-3---------------3---------------3---------------3--------------|
G|-2---------------2---------------0---------------0--------------|
D|-0---------------0---------------0---------------0--------------|
A|-0---------------0---------------2---------------2--------------|
E|-x---------------x---------------x---------------x--------------|
 
 
___C5______________________________G5_____________________________
  "not     for     money  and it's not    for      fame..."
e|-3---------------3---------------3---------------3--------------|
B|-3---------------3---------------3---------------3--------------|
G|-0---------------0---------------0---------------0--------------|
D|-x---------------x---------------0---------------0--------------|
A|-3---------------3---------------x---------------x--------------|
E|---------------------------------3---------------3--------------|
 
 
___D_______________________________A______________________________
                  "I       just    can't   ex   -  plain..."
e|-2---------------2---------------0---------------0--------------|
B|-3---------------3---------------2---------------2--------------|
G|-2---------------2---------------2---------------2--------------|
D|-0---------------0---------------2---------------2--------------|
A|---------------------------------0---------------0--------------|
E|----------------------------------------------------------------|
 
 
___D/F#____________________________A______________________________
              "Sometimes   it's    lone -  ly..."
e|-2---------------2---------------0---------------0--------------|
B|-3---------------3---------------2---------------2--------------|
G|-2---------------2---------------2---------------2--------------|
D|-0---------------0---------------2---------------2--------------|
A|-x---------------x---------------0---------------0--------------|
E|-2---------------2----------------------------------------------|
 
 
Part C:
 
___F/A_____________C/G_____________D/F#____________A/E____________
  "Mark  - ing the space   be   -  tween   the     days..."
e|----------------------------------------------------------------|
B|-10--------------8---------------7---------------5--------------|
G|-10--------------9---------------7---------------6--------------|
D|-10--------------10--------------7---------------7--------------|
A|-12--------------10--------------9---------------7--------------|
E|----------------------------------------------------------------|
 
 
___D/F#____________A/E_____________G_______________A______________
  "Ear  -  ly      hours           pass    a   -  way,          I..."
e|----------------------------------------------------------------|
B|-7---------------5---------------8---------------10-------------|
G|-7---------------6---------------7---------------9--------------|
D|-7---------------7---------------9---------------11-------------|
A|-9---------------7---------------10--------------12-------------|
E|----------------------------------------------------------------|
 
 
___F/A_____________C/G_____________D/F#____________A/E____________
  "sing     to     you     of      north     ern   lights,      I..."
e|----------------------------------------------------------------|
B|-10--------------8---------------7---------------5--------------|
G|-10--------------9---------------7---------------6--------------|
D|-10--------------10--------------7---------------7--------------|
A|-12--------------10--------------9---------------7--------------|
E|----------------------------------------------------------------|
 
 
___D/F#____________A/E_____________G_______________A______________
  "sing     to     you      of     north    ern    li - "
e|---------------------------------3---------------5--------------|
B|-7---------------5---------------3---------------5--------------|
G|-7---------------6---------------4---------------6--------------|
D|-7---------------7---------------5---------------7--------------|
A|-9---------------7----------------------------------------------|
E|----------------------------------------------------------------|
 
 
[Interlude:]
 
___Bsus4__________________________________________________________
 " - ights..."    (strum freely...)
e|-0--------------------------------------------------------------|
B|-0--------------------------------------------------------------|
G|-4--------------------------------------------------------------|
D|-4--------------------------------------------------------------|
A|-2--------------------------------------------------------------|
E|----------------------------------------------------------------|
 
 | 1   -   &   -   2   -   &   -   3   -   &   -   4   -   &   -  |
 
___F#m11__________________________________________________________
                  (strum freely...)
e|-0--------------------------------------------------------------|
B|-0--------------------------------------------------------------|
G|-2--------------------------------------------------------------|
D|-4--------------------------------------------------------------|
A|-4--------------------------------------------------------------|
E|-2--------------------------------------------------------------|
 
 
Repeat part A.
Repeat part B.
Repeat part C.
Repeat interlude.
Repeat chorus.
 
[Ending]
 
 
___Bsus4_____________________________________
 
e|-0---0-0-0---0-0-0---0-0-0---0-0-0---0-0-0-|
B|-0---0-0-0---0-0-0---0-0-0---0-0-0---0-0-0-|
G|-4---4-4-4---4-4-4---4-4-4---4-4-4---4-4-4-|
D|-4---4-4-4---4-4-4---4-4-4---4-4-4---4-4-4-|
A|-2---2-2-2---2-2-2---2-2-2---2-2-2---2-2-2-|
E|-------------------------------------------|
 
 | 1 - & - 2 - & - 3 - & - 4 - & - 5 - & - 6 |
 
 
___C#m7____________________B_________
 
e|-0---0-0-0---0-0-0---0-0-----------|
B|-0---0-0-0---0-0-0---0-0-4---4-4-4-|
G|-4---4-4-4---4-4-4---4-4-4---4-4-4-|
D|-2---2-2-2---2-2-2---2-2-4---4-4-4-|
A|-4---4-4-4---4-4-4---4-4-2---2-2-2-|
E|-----------------------------------|
 
 | 1 - & - 2 - & - 3 - & - 4 - & - 5 |
 
Repeat chorus, fade out or end on E chord.
 
___E______________________________________________________________
 
e|-0--------------------------------------------------------------|
B|-0--------------------------------------------------------------|
G|-1--------------------------------------------------------------|
D|-2--------------------------------------------------------------|
A|-2--------------------------------------------------------------|
E|-0--------------------------------------------------------------|
            
Submit corrections

↑ Back to top | Tablatures and chords for acoustic guitar and electric guitar, ukulele, drums are parodies/interpretations of the original songs. You may use it for private study, scholarship, research or language learning purposes only