Home » R » Rembrandts »

Rembrandts - This Close To Heaven Tabs

Artists:  A B C D E F G H I J K L M N O P Q R S T U V W X Y Z # 

This Close To Heaven Tabs

(ver. 1) Click to play this song!
Rembrandts

e|--------5-5-x-5----7-7-x-------3-3-x-------5-5\-3--5-5\-3-0-5\-3--|
B|--------5-5-x-5----9-9-x-9\----5-5-x-5\----7-7\-5--7-7\-5-0-7\-5--|
G|--------5-5-x-5----9-9-x-9\----5-5-x-5\----7-7\-5--7-7\-5-0-7\-5--|
D|--------7-7-x-7----9-9-x-9\----5-5-x-5\----7-7\-5--7-7\-5-0-7\-5--|
A|--9\----7-7-x-7----7-7-x-------3-3-x-5\----5-5\-3--5-5\-3-0-5\-3--|
E|--------5-5-x-5----x-x-x-------x-x-x-------x-x--x--x-x--x-0-x--x--|

e|--5-5-x-5/------------------3-3-x-------5-5\-3--5-5\-3-0-5\-3--|
B|--5-5-x-5/-------9----------5-5-x-5\----7-7\-5--7-7\-5-0-7\-5--|
G|--5-5-x-5/----------9-------5-5-x-5\----7-7\-5--7-7\-5-0-7\-5--|
D|--7-7-x-7/----9--------9----5-5-x-5\----7-7\-5--7-7\-5-0-7\-5--|
A|--7-7-x-7/------------------3-3-x-5\----5-5\-3--5-5\-3-0-5\-3--|
E|--5-5-x-5/------------------x-x-x-------x-x--x--x-x--x-0-x--x--|

e|--------5-5-x-5----7-7-x-------3-3-x-------5-5\-3--5-5\-3-0-5\-3--|
B|--------5-5-x-5----9-9-x-9\----5-5-x-5\----7-7\-5--7-7\-5-0-7\-5--|
G|--------5-5-x-5----9-9-x-9\----5-5-x-5\----7-7\-5--7-7\-5-0-7\-5--|
D|--------7-7-x-7----9-9-x-9\----5-5-x-5\----7-7\-5--7-7\-5-0-7\-5--|
A|--9\----7-7-x-7----7-7-x-------3-3-x-5\----5-5\-3--5-5\-3-0-5\-3--|
E|--------5-5-x-5----x-x-x-------x-x-x-------x-x--x--x-x--x-0-x--x--|
            
Submit corrections

↑ Back to top | Tablatures and chords for acoustic guitar and electric guitar, ukulele, drums are parodies/interpretations of the original songs. You may use it for private study, scholarship, research or language learning purposes only