Home » R » Rembrandts »

Rembrandts - Just The Way It Is Baby Tabs

Artists:  A B C D E F G H I J K L M N O P Q R S T U V W X Y Z # 

Just The Way It Is Baby Tabs

(ver. 1) Click to play this song!
Rembrandts


Just the way it is baby (solo) - The Rembrandts

Not exact but close enough.


P - Pull off
H - Hammer on
S - Slide
(5) - Bend up to this note

 C#m                  G#
|-------------------------------------------------|
|-9~~~~~~~~~~~--------7-P-6-P-5-P-0---------------|
|------------------------------------1------------|
|-------------------------------------------------|
|-------------------------------------------------|
|-------------------------------------------------|


 F#m                       G#
|--------------4-(5)-4----------------------------|
|-----------------------7--------4--5-S-7---------|
|-1-S-2--4--6--------------5--6-------------------|
|-------------------------------------------------|
|-------------------------------------------------|
|-------------------------------------------------|


 C#m                    G#
|-12-9-----11-8------------------------------------------|
|------9--------9-------4--5-S7--4-----------------------|
|--------9--------8-9---------------6--5--6-P-5----------|
|---------------------------------------------- 7-P-6--4-|
|--------------------------------------------------------|
|--------------------------------------------------------|


 F#m                          G#
|-------------------------------------------------|
|-------------------------------------------------|
|-------2-S-4--2----------------------------------|
|----2------------4-S-6--4----2-S-4--2------------|
|-4-------------------------------------4-S-6--4--|
|-------------------------------------------------|
            
Submit corrections

↑ Back to top | Tablatures and chords for acoustic guitar and electric guitar, ukulele, drums are parodies/interpretations of the original songs. You may use it for private study, scholarship, research or language learning purposes only