» » »

Rekiem - Cautiverio Tabs

Artists:  A B C D E F G H I J K L M N O P Q R S T U V W X Y Z # 

Cautiverio Tabs

(ver. 1) Click to play this song!
Rekiem
 Rating:
4/5 (4 votes)
                
tunned  B F# B G# C#

intro-verso
C#|-1-1-1-1-1-1-1-1-1-1-2-2-2-2-2-2-2-2-2-2-2-2-2-2-2-2-2-2-2-2--------------------|
G#|-3-3-3-3-3-3-3-3-3-3-3-3-3-3-3-3-3-3-3-3-3-3-3-3-3-3-3-3-3-3--------------------|
E |-2-2-2-2-2-2-2-2-2-2-2-2-2-2-2-2-2-2-2-2-2-2-2-2-2-2-2-2-2-2--------------------|
B |--------------------------------------------------------------------------------|
F#|--------------------------------------------------------------------------------|
B |--------------------------------------------------------------------------------|

Coro

C#|-----------------------------------------------------------------------------|
G#|-----------------------------------------------------------------------------|
E |-5-5-5-5-5-5-5-5-5-5-5-5-5-5--10-10-10-10-10-10-10-10-10-10-10---------------|
B |-5-5-5-5-5-5-5-5-5-5-5-5-5-5---8-8-8-8-8-8-8-8-8-8-8-8-8-8-8-8---------------|
F#|-3-3-3-3-3-3-3-3-3-3-3-3-3-3---8-8-8-8-8-8-8-8-8-8-8-8-8-8-8-8---------------|
B|--------------------------------8-8-8-8-8-8-8-8-8-8-8-8-8-8-8-8---------------|

y no me acuerdo como xuxa es la parte lenta........
            
Submit corrections

↑ Back to top | Tablatures and chords for acoustic guitar and electric guitar, ukulele, drums are parodies/interpretations of the original songs. You may use it for private study, scholarship, research or language learning purposes only