» » »

Rekiem - 104 Tabs

Artists:  A B C D E F G H I J K L M N O P Q R S T U V W X Y Z # 

104 Tabs

(ver. 1) Click to play this song!
Rekiem
 Rating:
4/5 (4 votes)


 104 lessons Tabs too difficult? Try these video lessons and learn fast
 
                104 (B,F#,B,E,G#,C#)

verso
|--------------------------|
|--------------------------|
|--------------------------|
|--------------------------|
|--------------------------|
|-1-1/2\1-1-1-1/2\1-0------|


coro(no estoy muy seguro de las notas)
|--------------------------|
|--------------------------|
|-11--14----11---17--------|
|-9---13-----8---17--------|
|-9---13-----8---17--------|
|-9...13...--8...15--------|

antes del bridge          x4
|--------------------------||---|
|--------------------------||---|
|--------------------------||---|
|--------------------------||-1:|
|--------------------------||-1:|
|-1-1-1-1/2\-1-1-1---------||-1:|

lento
|------------------------------------------------|
|------------------------------------------------|
|------------------------------------------------|
|------------------------------------------------|
|-2--2-3--1-1-3-2--2-3--1--1-3--2--2-3--1-1-3...-|
|--------1-----1-------1-------1-------1-----...-|
            
Submit corrections



        104 lessons Hard to play? Try these video lessons and learn fast 104 lessons
        
↑ Back to top | Tablatures and chords for acoustic guitar and electric guitar, ukulele, drums are parodies/interpretations of the original songs. You may use it for private study, scholarship, research or language learning purposes only