Home » R » Reik »

Reik - Vuelve Tabs

Artists:  A B C D E F G H I J K L M N O P Q R S T U V W X Y Z # 

Vuelve Tabs

(ver. 1) Click to play this song!
Reik


Bueno ps aki les dejo esta exelente rola de estos chavos de reik
ke en verdad me tarde bastante en sacarla completa por ke hay arpegios
ke muy apenas se escuchan pero ps aki les va espero y les guste:

"ESTA CANCION SOLAMENTE VA ARPEGIADA" asi ke va asi :

INTRO:

e-------------------------------------------------------------|
B-0---3--1------1-0h1h0---0------0-3---5--1-----0--1-0h1h0--0-|
G-0---------------------2-------0----0---------2-----------2--|
D--0--4--2------1------------------4---5--2--------1----------|
A-------------------------------------------------------------|
E-3---------33----------------3--------------3----------------|

e--------------|
B--------------|
G-2/4-2p0------|
D---------2p0--|
A--------------|
E--------------|

"x" Silenciar con la palma de la mano

e----x-----------------x----------------x--------------1--|
B-0--x-0-------0----0--x--0-------0--0--x-0-------0----1--|
G-0--x-0-----0------0--x--0-----0----0--x-0-----0------2--|
D----x-----0-----------x------1---------x-----2--------3--|
A--2-x---2-----------2-x----2---------2-x---2----------3--|
E-3--x-3------------3--x--3----------3--x-3------------1--|
 Sigo buscando el porque te fuiste de aqui dejando un abismo

e----------------------------------------------------------------------|
B------3----0---0---0---0---0-------3-----3--0-----0------------1------|
G------2------0-------0-----------------0--------0-------------0--0----|
D------0----------2------2------------4--------2-------------2------2--|
A------2----3-----------------------2--------2-------------0---------0-|
E------0---------------------------------------------------------------|
 entre tu y yo no te he podido olvidar       y no se si a ti      te pase

e------------|
B--------4---|
G------2---2-|
D----4-------|
A--3---------|
E------------|
  lo mismo


e------------------------------------------------------------|
B-0-------0---------0--------0------------0---------0--------|
G-0---0-0-----0-----0---0-0------0--------0-----0-0-----0----|
D---0---0---0---------1---1----0----------2---0---0---0------|
A---2-----------------2-------------------2---2--------------|
E-3-----------------3---------------------3-3----------------|
 Toda mi vida    cambio     me falta tu amor       siento que


e---1-----------------------------------------------------------|
B---1-------3---------0---0---0---0-----------3------3----------|
G---2-------2-----------0-------0-----0------------0------------|
D---3-------0---------------2-------2------------4--------------|
A---3-------2---------3-----------------------2-----------------|
E---1-------0---------------------------------------------------|
  pierdo   la razón  y hoy te he vuelto a llorar

e---------------------------------------3-2--|
B-0-----0----1-----1------------------3------|
G-----0----------0-----0---0--------2--------|
D---2----------2-----2------------0----------|
A-2----------0-----------0-------------------|
E--------------------------------------------|
 Porque sin ti       no aprendo a vivir

CORO:

e---------------------------2--------------------3---------|
B-1—-1-1---3-----1----1-------3-----------0--------0-------|
G---0----0---2------------------2--------------------------|
D—-2-----2---0-----2--------0-----------------0------------|
A-3----3---2-----3--------------------------2--------------|
E-----------------------------------------3----------------|
  Vuelve       quiero   sentirme   en tus brazos

e-----x--------------------------------------------2-----2----------|
B—-0—-x—-0-----0-------0--------1-------------0--------3--------1-0-|
G—-0—-x—-0---0--------2---------------------0---0----2-----2---0—-0-|
D---2-x----2---------2--------0---0-------0--------0-----0----2---0-|
A—-3—-x—-3----------0--------2------2---2--------------------3----2-|
E-----x---------------------3-------------------------------------3-|
  Quiero besarte en los labios      por siempre quedarme a  tu  lado

e---------------------------2--------------------3---------|
B-1—-1-1---3-----1----1-------3-----------0--------0-------|
G---0----0---2------------------2--------------------------|
D—-2-----2---0-----2--------0-----------------0------------|
A-3----3---2-----3--------------------------2--------------|
E-----------------------------------------3----------------|
 Vuelve        sabes que   tu  me     haces     falta



e----x--------------------------------------------------0-------|
B-0—-x--------3-------3—--------5-------5-------5------1-1---1--|
G-0—-x--------0—-0----------------4---4---4---4-------0---0-----|
D—-2-x--2-----2---2-----------------6-------6--------2-----2----|
A-3—-x-3------2-------------------------------------------------|
E----x-------------------------4--------------------------------|
 La espera es cruel  y      lastima              vuelve
                                 INTRO:::::::::::::::::::
e-------3—-2--|---------------------------------------------------|
B-----3-------|-----0-----3—-1---1-0h1h0---0-----0—-3---5—-1—---0-|
G---2---------|-----0--------------------2------0-----0--------2--|
D-0-----------|-------0---4—-2---1------------------4---5—-2—-----|
A-------------|---------------------------------------------------|
E-------------|-----3------------33-----------3---------------3---|
Llena de amor mi vida
e---------------------------|
B-1-0h1h0---0---------------|
G---------2-----2/4-2p0-----|
D-1---------------------2p0-|
A---------------------------|
E---------------------------|

(De aki en adelante se sigue la misma secuencia de arpegios)

e----x-----------------x----------------x--------------1--|
B-0--x-0-------0----0--x--0-------0--0--x-0-------0----1--|
G-0--x-0-----0------0--x--0-----0----0--x-0-----0------2--|
D----x-----0-----------x------1---------x-----2--------3--|
A--2-x---2-----------2-x----2---------2-x---2----------3--|
E-3--x-3------------3--x--3----------3--x-3------------1--|
 Como sacarme este  amor que ahora es dolor tal vez olvidarte

e----------------------------------------------------------------------|
B----3---------0---0---0---0-------3-----3-0-----0----1-----1--------1-|
G----2-----------0-------0-----0-------0-------0----------0------0-----|
D----0---------------2-------2-------4-------2----------2------2-------|
A----2---------3-------------------2-------2----------0------------0---|
E----0-----------------------------------------------------------------|
 Sea mejor pero no puedo     engañar    a este         corazón   que

e---------3—-2---|
B-------3--------|
G-----2----------|
D---0------------|
A----------------|
E----------------|
 Espera por ti

e---------------------------2--------------------3---------|
B-1—-1-1---3-----1----1-------3-----------0--------0-------|
G---0----0---2------------------2--------------------------|
D—-2-----2---0-----2--------0-----------------0------------|
A-3----3---2-----3--------------------------2--------------|
E-----------------------------------------3----------------|
  Vuelve       quiero   sentirme   en tus brazos

e-----x--------------------------------------------2-----2----------|
B—-0—-x—-0-----0-------0--------1-------------0--------3--------1-0-|
G—-0—-x—-0---0--------2---------------------0---0----2-----2---0—-0-|
D---2-x----2---------2--------0---0-------0--------0-----0----2---0-|
A—-3—-x—-3----------0--------2------2---2--------------------3----2-|
E-----x---------------------3-------------------------------------3-|
  Quiero besarte en los labios      por siempre quedarme a  tu  lado

e---------------------------2--------------------3---------|
B-1—-1-1---3-----1----1-------3-----------0--------0-------|
G---0----0---2------------------2--------------------------|
D—-2-----2---0-----2--------0-----------------0------------|
A-3----3---2-----3--------------------------2--------------|
E-----------------------------------------3----------------|
 Vuelve        sabes que   tu  me     haces     falta

e----x--------------------------------------------------0-------|
B-0—-x--------3-------3—--------5-------5-------5------1-1---1--|
G-0—-x--------0—-0----------------4---4---4---4-------0---0-----|
D—-2-x--2-----2---2-----------------6-------6--------2-----2----|
A-3—-x-3------2-------------------------------------------------|
E----x-------------------------4--------------------------------|
 La espera es cruel  y      lastima              vuelve

e-------3—-2------3----------------0----------2---------|
B-----3-----------3---------0-----1-1---1----3-3---3—-4-|
G---2-------------2--------0-----0---0------2-----2---3-|
D-0---------------0-------0-----2-----2----0-----0----5-|
A-----------------0------2----------------------------3-|
E-----------------3-------------------------------------|
 Llena de amor mi vida        vuelve      llena de amor  mi vida

FINAL:

e--------------------------------------------|
B-0—--3—-1-----0—-1-0h1h0---0—------------0--|
G-0----------2------------2---2/4-2p0-----0--|
D—-0—-4—-2--------1------------------2p0--0--|
A-----------------------------------------2--|
E-3--------3------------------------------3--|

Espero y haya sido de su agrado valla y me tarde
Para sacar esta rola pero ps hice lo que pude y para mi suena muy
Bien alguna duda o comentario solo háganme saber.
            
Submit corrections

↑ Back to top | Tablatures and chords for acoustic guitar and electric guitar, ukulele, drums are parodies/interpretations of the original songs. You may use it for private study, scholarship, research or language learning purposes only