Home » R » Reik »

Reik - Como Me Duele Tabs

Artists:  A B C D E F G H I J K L M N O P Q R S T U V W X Y Z # 

Como Me Duele Tabs

(ver. 3) Click to play this song!
Reik
(Intro)
hi i hope u like it


E--------------------------------------------------------|       repeat
B----------------------------------------7-8-9-----------|
G------------0-----------0---------------------9-8-7-6-5-|
D---------4-----4-------------4--------------------------|
A------7-----------7--------------7----------------------|
e--------------------------------------------------------|

         then the intro ends with a strum of this chord shape:

E----------3-----------------------------------------|
B----------------------------------------------------|
G----------------------------------------------------|
D------1---------------------------------------------|
A--------2-------------------------------------------|
e----------------------------------------------------|
            
Submit corrections

↑ Back to top | Tablatures and chords for acoustic guitar and electric guitar, ukulele, drums are parodies/interpretations of the original songs. You may use it for private study, scholarship, research or language learning purposes only