» » »

Rehab - Bottles And Cans Tabs

Artists:  A B C D E F G H I J K L M N O P Q R S T U V W X Y Z # 

Bottles And Cans Tabs

(ver. 1) Click to play this song!
Rehab
 Rating:
4.1/5 (31 vote)

 Bottles And Cans  lessons Tabs too difficult? Try these video lessons and learn fast
 
                [Intro]
D#|--8-7------8--8-7-----------|--7---------7--7-------------------------------|
A#|------8-10--------8-10------|----10-8-10------10-8-10-----------------------|
F#|----------------------------|-----------------------------------------------|
C#|----------------------------|-----------------------------------------------|
G#|----------------------------|-----------------------------------------------|
D#|----------------------------|-----------------------------------------------|

D#|----------------------------|-------------8---7-----------------------------|
A#|--10-8-7-8-10--10-8-7-8-----|--10-----10------------------------------------|
F#|----------------------------|-----------------------------------------------|
C#|----------------------------|-----------------------------------------------|
G#|----------------------------|-----------------------------------------------|
D#|----------------------------|-----------------------------------------------|

[Verse]
           Em                        D
D#|--------7-------------------|-----5-----------------------------------------|
A#|--------8-------------------|-----7-----------------------------------------|
F#|--------9-------------------|-----7-----------------------------------------|
C#|--------9-------------------|-----7-----------------------------------------|
G#|--------7-------------------|-----5-----------------------------------------|
D#|----------------------------|-----------------------------------------------|
           C                         Bm
D#|--------3-------------------|-----2-----------------------------------------|
A#|--------5-------------------|-----3-----------------------------------------|
F#|--------5-------------------|-----4-----------------------------------------|
C#|--------5-------------------|-----4-----------------------------------------|
G#|--------3-------------------|-----2-----------------------------------------|
D#|----------------------------|-----------------------------------------------|

[Chorus]
           Em                        D
D#|--------7-------------------|-----5-----------------------------------------|
A#|--------8-------------------|-----7-----------------------------------------|
F#|--------9-------------------|-----7-----------------------------------------|
C#|--------9-------------------|-----7-----------------------------------------|
G#|--------7-------------------|-----5-----------------------------------------|
D#|----------------------------|-----------------------------------------------|
           C                         Bm
D#|--------3-------------------|-----2-----------------------------------------|
A#|--------5-------------------|-----3-----------------------------------------|
F#|--------5-------------------|-----4-----------------------------------------|
C#|--------5-------------------|-----4-----------------------------------------|
G#|--------3-------------------|-----2-----------------------------------------|
D#|----------------------------|-----------------------------------------------|

[Verse]
           Em                        D
D#|--------7-------------------|-----5-----------------------------------------|
A#|--------8-------------------|-----7-----------------------------------------|
F#|--------9-------------------|-----7-----------------------------------------|
C#|--------9-------------------|-----7-----------------------------------------|
G#|--------7-------------------|-----5-----------------------------------------|
D#|----------------------------|-----------------------------------------------|
           C                         Bm
D#|--------3-------------------|-----2-----------------------------------------|
A#|--------5-------------------|-----3-----------------------------------------|
F#|--------5-------------------|-----4-----------------------------------------|
C#|--------5-------------------|-----4-----------------------------------------|
G#|--------3-------------------|-----2-----------------------------------------|
D#|----------------------------|-----------------------------------------------|

[Chorus]
           Em                        D
D#|--------7-------------------|-----5-----------------------------------------|
A#|--------8-------------------|-----7-----------------------------------------|
F#|--------9-------------------|-----7-----------------------------------------|
C#|--------9-------------------|-----7-----------------------------------------|
G#|--------7-------------------|-----5-----------------------------------------|
D#|----------------------------|-----------------------------------------------|
           C                         Bm
D#|--------3-------------------|-----2-----------------------------------------|
A#|--------5-------------------|-----3-----------------------------------------|
F#|--------5-------------------|-----4-----------------------------------------|
C#|--------5-------------------|-----4-----------------------------------------|
G#|--------3-------------------|-----2-----------------------------------------|
D#|----------------------------|-----------------------------------------------|

[Bridge]
           Em                        D
D#|--------7-------------------|-----5-----------------------------------------|
A#|--------8-------------------|-----7-----------------------------------------|
F#|--------9-------------------|-----7-----------------------------------------|
C#|--------9-------------------|-----7-----------------------------------------|
G#|--------7-------------------|-----5-----------------------------------------|
D#|----------------------------|-----------------------------------------------|
           C                         Bm
D#|--------3-------------------|-----2-----------------------------------------|
A#|--------5-------------------|-----3-----------------------------------------|
F#|--------5-------------------|-----4-----------------------------------------|
C#|--------5-------------------|-----4-----------------------------------------|
G#|--------3-------------------|-----2-----------------------------------------|
D#|----------------------------|-----------------------------------------------|

[Chorus]
           Em                        D
D#|--------7-------------------|-----5-----------------------------------------|
A#|--------8-------------------|-----7-----------------------------------------|
F#|--------9-------------------|-----7-----------------------------------------|
C#|--------9-------------------|-----7-----------------------------------------|
G#|--------7-------------------|-----5-----------------------------------------|
D#|----------------------------|-----------------------------------------------|
           C                         Bm
D#|--------3-------------------|-----2-----------------------------------------|
A#|--------5-------------------|-----3-----------------------------------------|
F#|--------5-------------------|-----4-----------------------------------------|
C#|--------5-------------------|-----4-----------------------------------------|
G#|--------3-------------------|-----2-----------------------------------------|
D#|----------------------------|-----------------------------------------------|
            
Submit corrections


        Bottles And Cans  lessons Hard to play? Try these video lessons and learn fast Bottles And Cans  lessons
        
↑ Back to top | Tablatures and chords for acoustic guitar and electric guitar, ukulele, drums are parodies/interpretations of the original songs. You may use it for private study, scholarship, research or language learning purposes only