» » »

Refused - Refused Are F*Cking Dead Tabs

Artists:  A B C D E F G H I J K L M N O P Q R S T U V W X Y Z # 

Refused Are F*Cking Dead Tabs

(ver. 1) Click to play this song!
Refused
 Rating:
4/5 (4 votes)

 Refused Are F*Cking Dead lessons Tabs too difficult? Try these video lessons and learn fast
 
                                     REFUSED ARE f**kIN' DEAD - Refused


INTRO:

DIRTY TUNE
e----------------------------
b----------------------------
g---------5-5-5--------------
d-5-X-X-5-0-0-x-5-5-6-6-6-6-6
a-5-X-X-5-----3-5-5-6-6-6-6-6
E-3-X-X-3-------3-3-4-4-4-4-4 many times

e------------------
b------------------
g------------------
d-5-5-5-5-5-5-5-5-5
a-X-X-X-X-X-X-X-X-X
E-3-3-3-3-3-3-3-3-3 so many times

RIFF (first verse)
g-7-0-6-6-7-0-3-3-0-3-4-0 so much times than

e----
b----
g----
d-5-5
a-5-5
E-3-3

CHORUS
g-2~~~~~2~~~~~  <- very heavy tremolo

RIFF 2 (second verse)
g-7-0-6-6-7-0-3-3-0-3-4-0 so much times than

b-------------6-6-6/7-0
g-7-7-7-7-7-6--------- (X4)

b-------------8-8-8/9--          g-7-7-7-7-9-9-9-3-3-3-3-0-0-0----
g-7-7-7-7-7-9---------9 (X3) and d-----------------------------2-3

RIFF 3
g-7-0-6-6-7-0-3-3-0-3-4-0 so much times

e------------------
b------------------
g------------------
d-5-5-5-5-5-5-5-5-5
a-X-X-X-X-X-X-X-X-X
E-3-3-3-3-3-3-3-3-3 so many times

g-7-0-6-6-7-0-3-3-0-3-4-0 many times and d-3

digital drums

EXPOLSIVE MOVING CHORUS:
e-5-5-5-5-5-5-5-1-1-1-1-1-1-1
b-5-5-5-5-5-5-5-1-1-1-1-1-1-1
g-5-5-5-5-5-5-5-2-2-2-2-2-2-2
d-7-7-7-7-7-7-7-3-3-3-3-3-3-3
a-7-7-7-7-7-7-7-3-3-3-3-3-3-3
E-5-5-5-5-5-5-5-1-1-1-1-1-1-1

end with a digital drums
            
Submit corrections


        Refused Are F*Cking Dead lessons Hard to play? Try these video lessons and learn fast Refused Are F*Cking Dead lessons
        
↑ Back to top | Tablatures and chords for acoustic guitar and electric guitar, ukulele, drums are parodies/interpretations of the original songs. You may use it for private study, scholarship, research or language learning purposes only