» » »

Refused - Lick It Clean Tabs

Artists:  A B C D E F G H I J K L M N O P Q R S T U V W X Y Z # 

Lick It Clean Tabs

(ver. 1) Click to play this song!
Refused
 Rating:
4/5 (4 votes)

 Lick It Clean lessons Tabs too difficult? Try these video lessons and learn fast
 
                Lick it clean


Intro (bass)      PM______________________________
-------------|---|---------------------------------|
-------------|---|---------------------------------|
-------------|---|---------------------------------|
-------------|---|---------------------------------|
-------------|-2-|-2-2-2-2-2-2-2-2-2-2-2-2-2-2-2-2-|
-------------|-0-|-0-0-0-0-0-0-0-0-0-0-0-0-0-0-0-0-|

Verse: 
Gtr1:
-------------------------------|
-------------------------------|
-------------------------------|
-------------------------------|
-2---2---3---3---5---5---7---7-|
-0---0---1---1---3---3---5---5-|
Gtr2:     
---------------------------------------------|
---------------------------------------------|
---------------------------------------------|
-9-9-9-9-10-10-10-10-12-12-12-12-14-14-14-14-|
-7-7-7-7--8--8--8--8-10-10-10-10-12-12-12-12-|
---------------------------------------------|

Ref:             3x
-------------------|-----------------|
-------------------|-----------------|
-------------------|-----------------|
-------------------|-----------------|
-2-3-2-3-4-5-4-5-6-|-2-3-2-3-4-5-4-5-|
-0-1-0-1-2-3-2-3-4-|-0-1-0-1-2-3-2-3-|

Break: (give praise...)
---------------|
---------------|
---------------|
---------------|
-2-2-2-2-2-2-2-|
-0-0-0-0-0-0-0-|
            
Submit corrections


        Lick It Clean lessons Hard to play? Try these video lessons and learn fast Lick It Clean lessons
        
↑ Back to top | Tablatures and chords for acoustic guitar and electric guitar, ukulele, drums are parodies/interpretations of the original songs. You may use it for private study, scholarship, research or language learning purposes only