» » »

Refused - Francafrique Tabs

Artists:  A B C D E F G H I J K L M N O P Q R S T U V W X Y Z # 

Francafrique Tabs

(ver. 1) Click to play this song!
Refused
 Rating:
5/5 (1 vote)

 Francafrique  lessons Tabs too difficult? Try these video lessons and learn fast
 
                Intro

e||---------------------------------------------|
B||---------------------------------------------|
G||-9-9------9-9---7--8--9-9------9-9------5-5--|
D||-9-9------9-9---7--8--9-9------9-9------5-5--|
A||-7-7------7-7---5--6--7-7------7-7--5-7------|
E||-----0-3/-----------------0-3/---------------|

e||-----------------------------------------------------------|
B||-8-8------------------------------------5------------------|
G||-9-9------9-9---7--8--9-9------9-9------5------------------|
D||-9-9------9-9---7--8--9-9------9-9--5-7------5-5h7p5-------|
A||-7-7------7-7---5--6--7-7------7-7---------7---------------|
E||-----0-3/-----------------0-3/-----------------------3--0--|

e||---------------------------------------------|
B||---------------------------------------------|
G||-9-9------9-9---7--8--9-9------9-9------5-5--|
D||-9-9------9-9---7--8--9-9------9-9------5-5--|
A||-7-7------7-7---5--6--7-7------7-7--5-7------|
E||-----0-3/-----------------0-3/---------------|

e||---------------------------------------------|
B||-8-8-----------------------------------------|
G||-9-9------9-9---7--8--9-9------7-------------|
D||-9-9------9-9---7--8--9-9------7-------------|
A||-7-7------7-7---5--6--7-7------5-------------|
E||-----0-3/-----------------0-3/---------------|


Verse

e||---------------------------------------------|
B||---------------------------------------------|
G||-9-9------9-9---7--8--9-9------9-9------5-5--|
D||-9-9------9-9---7--8--9-9------9-9------5-5--|
A||-7-7------7-7---5--6--7-7------7-7--5-7------|
E||-----0-3/-----------------0-3/---------------|

e||-----------------------------------------------------------|
B||-8-8------------------------------------5------------------|
G||-9-9------9-9---7--8--9-9------9-9------5------------------|
D||-9-9------9-9---7--8--9-9------9-9--5-7------5-5h7p5-------|
A||-7-7------7-7---5--6--7-7------7-7---------7---------------|
E||-----0-3/-----------------0-3/-----------------------3--0--|

e||---------------------------------------------|
B||---------------------------------------------|
G||-9-9------9-9---7--8--9-9------9-9------5-5--|
D||-9-9------9-9---7--8--9-9------9-9------5-5--|
A||-7-7------7-7---5--6--7-7------7-7--5-7------|
E||-----0-3/-----------------0-3/---------------|

e||------------------------------------------|
B||-8-8--------------------------------------|
G||-9-9------9-9---7--8--9-9------9-9--7--8--|
D||-9-9------9-9---7--8--9-9------9-9--7--8--|
A||-7-7------7-7---5--6--7-7------7-7--5--6--|
E||-----0-3/-----------------0-3/------------|

e||--------------------------------------------------|
B||-10-10-------10-10--8--9--10-10------10-10--8--9--|
G||-9--9--------9--9---7--8--9--9-------9--9---7--8--|
D||-7--7--------7--7---5--6--7--7-------7--7---5--6--|
A||--------0-3/--------------------0-3/--------------|
E||--------------------------------------------------|

e||--------------------------------------------------|
B||-10-10-------10-10--8--9--10-10-------5-----------|
G||-9--9--------9--9---7--8--9--9--------7b(9)-------|
D||-7--7--------7--7---5--6--7--7--------------------|
A||--------0-3/--------------------0-3/--------------|
E||--------------------------------------------------|

e||---------------------------------------------|
B||---------------------------------------------|
G||-9-9------9-9---7--8--9-9------7--------5-5--|
D||-9-9------9-9---7--8--9-9------7--------5-5--|
A||-7-7------7-7---5--6--7-7------5----5-7------|
E||-----0-3/-----------------0-3/---------------|

e||---------------------------------------------|
B||-8-8------------------------------------8----|
G||-9-9------9-9---7--8--9-9----4--5-------9----|
D||-9-9------9-9---7--8--9-9----4--5------------|
A||-7-7------7-7---5--6--7-7-0--2--3------------|
E||-----0-3/------------------------------------|


Chorus

e||------------------------------------|---------------------------------------|
B||----8-----8--10-8-----8-----8--10-8-|-10--8---10--8---10-8--10--10--10--8---|
G||-9--7--9--7--7--7--9--7--9--7--7--7-|-7---7---7---7---7--7--9---9---9---7---|
D||------------------------------------|---------------------------------------|
A||------------------------------------|---------------------------------------|
E||------------------------------------|---------------------------------------|

e||------------------------------------|----------------------------|
B||----8-----8--10-8-----8-----8--10-8-|-10-----------8-------------|
G||-9--7--9--7--7--7--9--7--9--7--7--7-|-9------------7-------------|
D||------------------------------------|-7------------5-------------|
A||------------------------------------|----------------------------|
E||------------------------------------|----------------------------|


Solo

e||-----------|
B||-17--------|
G||-19b(21)---|
D||-----------|
A||-----------|
E||-----------|


Verse

e||---------------------------------------------|
B||---------------------------------------------|
G||-9-9------9-9---7--8--9-9------9-9------5-5--|
D||-9-9------9-9---7--8--9-9------9-9------5-5--|
A||-7-7------7-7---5--6--7-7------7-7--5-7------|
E||-----0-3/-----------------0-3/---------------|

e||-----------------------------------------------------------|
B||-8-8------------------------------------5------------------|
G||-9-9------9-9---7--8--9-9------9-9------5------------------|
D||-9-9------9-9---7--8--9-9------9-9--5-7------5-5h7p5-------|
A||-7-7------7-7---5--6--7-7------7-7---------7---------------|
E||-----0-3/-----------------0-3/-----------------------3--0--|

e||---------------------------------------------|
B||---------------------------------------------|
G||-9-9------9-9---7--8--9-9------9-9------5-5--|
D||-9-9------9-9---7--8--9-9------9-9------5-5--|
A||-7-7------7-7---5--6--7-7------7-7--5-7------|
E||-----0-3/-----------------0-3/---------------|

e||------------------------------------------|
B||-8-8--------------------------------------|
G||-9-9------9-9---7--8--9-9------9-9--7--8--|
D||-9-9------9-9---7--8--9-9------9-9--7--8--|
A||-7-7------7-7---5--6--7-7------7-7--5--6--|
E||-----0-3/-----------------0-3/------------|

e||--------------------------------------------------|
B||-10-10-------10-10--8--9--10-10------10-10--8--9--|
G||-9--9--------9--9---7--8--9--9-------9--9---7--8--|
D||-7--7--------7--7---5--6--7--7-------7--7---5--6--|
A||--------0-3/--------------------0-3/--------------|
E||--------------------------------------------------|

e||--------------------------------------------------|
B||-10-10-------10-10--8--9--10-10-------5-----------|
G||-9--9--------9--9---7--8--9--9--------7b(9)-------|
D||-7--7--------7--7---5--6--7--7--------------------|
A||--------0-3/--------------------0-3/--------------|
E||--------------------------------------------------|

e||---------------------------------------------|
B||---------------------------------------------|
G||-9-9------9-9---7--8--9-9------7--------5-5--|
D||-9-9------9-9---7--8--9-9------7--------5-5--|
A||-7-7------7-7---5--6--7-7------5----5-7------|
E||-----0-3/-----------------0-3/---------------|

e||---------------------------------------------|
B||-8-8------------------------------------8----|
G||-9-9------9-9---7--8--9-9----4--5-------9----|
D||-9-9------9-9---7--8--9-9----4--5------------|
A||-7-7------7-7---5--6--7-7-0--2--3------------|
E||-----0-3/------------------------------------|


Chorus

e||------------------------------------|---------------------------------------|
B||----8-----8--10-8-----8-----8--10-8-|-10--8---10--8---10-8--10--10--10--8---|
G||-9--7--9--7--7--7--9--7--9--7--7--7-|-7---7---7---7---7--7--9---9---9---7---|
D||------------------------------------|---------------------------------------|
A||------------------------------------|---------------------------------------|
E||------------------------------------|---------------------------------------|

e||------------------------------------|---------------------------------------|
B||----8-----8--10-8-----8-----8--10-8-|-10--8---10--8---10-8--10--10--10--8---|
G||-9--7--9--7--7--7--9--7--9--7--7--7-|-7---7---7---7---7--7--9---9---9---7---|
D||------------------------------------|---------------------------------------|
A||------------------------------------|---------------------------------------|
E||------------------------------------|---------------------------------------|

e||------------------------------------|
B||----8-----8--10-8-----8-----8--10---|
G||-9--7--9--7--7--7--9--7--9--7--7----|
D||------------------------------------|
A||------------------------------------|
E||------------------------------------|


Bridge

e||-----------------------------------------------------|
B||-----------------------------------------------------|
G||-----------------------------------------------------|
D||-----------------------------------------------------|
A||-7--5-7--5-7--5-7--5-7--5-7--5-7--5-7--5-7--5-7--5---|
E||-----------------------------------------------------|


Outro

dist.
e||------------------------------------------------|
B||------------------------------------------------|
G||-9-9------9-9---7--8--9-9------9-9--7--12-12-12-|
D||-9-9------9-9---7--8--9-9------9-9--7--12-12-12-|
A||-7-7------7-7---5--6--7-7------7-7--5--10-10-10-|
E||-----0-3/-----------------0-3/------------------|

end on 

e||----||
B||----||
G||-9\-||
D||-9\-||
A||-7\-||
E||----||


            
Submit corrections


        Francafrique  lessons Hard to play? Try these video lessons and learn fast Francafrique  lessons
        
↑ Back to top | Tablatures and chords for acoustic guitar and electric guitar, ukulele, drums are parodies/interpretations of the original songs. You may use it for private study, scholarship, research or language learning purposes only