» » »

Refused - Elektra Tabs

Artists:  A B C D E F G H I J K L M N O P Q R S T U V W X Y Z # 

Elektra Tabs

(ver. 1) Click to play this song!
Refused
 Rating:
3/5 (22 votes)

 Elektra  lessons Tabs too difficult? Try these video lessons and learn fast
 
                Intro (with pre-measure)

e|------|-------------------------|-------------------------|
B|------|-------------------------|-------------------------|
G|------|-------------------------|-------------------------|
D|------|-------------------------|-------------------------|
A|------|-------------------------|-------------------------|
E|-10-0-|-12-0--------------------|-------------------------|

e|-------------------------|-------------------------------|
B|-------------------------|-------------------------------|
G|-------------------------|-------------------------------|
D|-------------------------|-------------------------------|
A|-------------------------|-------------------------------|
E|--------------------10-0-|-12-0-0-10-0-12-0-13-12-0-10-0-|

Main riff

e|-------------------------|-------------------------|
B|-------------------------|-------------------------|
G|-------------------------|-------------------------|
D|-------------------------|-------------------------|
A|-------------10----------|-------------10----------|
E|-12-0-0-10-0----0-0-10-0-|-12-0-0-10-0----0-0-10-0-|

e|-------------------------|-------------------------------|
B|-------------------------|-------------------------------|
G|-------------------------|-------------------------------|
D|-------------------------|-------------------------------|
A|-------------10----------|-------------------------------|
E|-12-0-0-10-0----0-0-10-0-|-12-0-0-10-0-12-0-13-12-0-10-0-|

Riff variation at 1:49

e|-------------------------|-------------------------|
B|-------------------------|-------------------------|
G|-------------12----------|-------------12----------|
D|-14-0-0-12-0----0-0-12-0-|-14-0-0-12-0----0-0-12-0-|
A|-------------------------|-------------------------|
E|-------------------------|-------------------------|

e|-------------------------|-------------------------------|
B|-------------------------|-------------------------------|
G|-------------12----------|-------------------------------|
D|-14-0-0-12-0----0-0-12-0-|-14-0-0-12-0-14-0-15-14-0-12-0-|
A|-------------------------|-------------------------------|
E|-------------------------|-------------------------------|
            
Submit corrections


        Elektra  lessons Hard to play? Try these video lessons and learn fast Elektra  lessons
        
↑ Back to top | Tablatures and chords for acoustic guitar and electric guitar, ukulele, drums are parodies/interpretations of the original songs. You may use it for private study, scholarship, research or language learning purposes only