» » »

Reef - Wont You Listen Tabs

Artists:  A B C D E F G H I J K L M N O P Q R S T U V W X Y Z # 

Wont You Listen Tabs

(ver. 1) Click to play this song!
Reef
 Rating:
3.2/5 (27 votes)

 Wont You Listen  lessons Tabs too difficult? Try these video lessons and learn fast
 
                Intro

E ---------------------------------|
B ---------------------------------|
G ---------------------------------|
D --5h7-7--7-7-7-5-5p4-4--4-4-4-5- |
A --5---5-5-5--5-5-5---5-5-5--5-5- |
E ---------------------------------|

                               harmonics
E -------------------------------------|
B --------------------------------*7---|
G ---------------------------------*7--|
D --5h7-7--7-7-7-7p5-5-5p4-4--4-4---*7-|
A --5---5-5-5--5-5---5-5---5-5-5-------|
E -------------------------------------|


Chorus (something like this I think)

We're up and down...

E ------- -------|
B ------- -------|
G ---7--- -----7-|
D --7---- ----5--|
A -5----- ---3---|
E ------- -------|


Bridge

have you got a song...

E ---------------------------------|
B ---------------------------------|
G ---------------------------------|
D --5h7-7--7-7-7-5-5p4-4--4-4-4-5- |
A --5---5-5-5--5-5-5---5-5-5--5-5- |
E ---------------------------------|

                               harmonics
E -------------------------------------|
B --------------------------------*7---|
G ---------------------------------*7--|
D --5h7-7--7-7-7-7p5-5-5p4-4--4-4---*7-|
A --5---5-5-5--5-5---5-5---5-5-5-------|
E -------------------------------------|


Verse:

what did you think that...

E --------------|
B --------------|
G --------7--5--|
D --2--5--7--5--|
A --2--5--5--3--|
E --0--3--------|

Verse

Bridge

Chorus (till end)
            
Submit corrections


        Wont You Listen  lessons Hard to play? Try these video lessons and learn fast Wont You Listen  lessons
        
↑ Back to top | Tablatures and chords for acoustic guitar and electric guitar, ukulele, drums are parodies/interpretations of the original songs. You may use it for private study, scholarship, research or language learning purposes only