» » »

Reef - I Would Have Left You Tabs

Artists:  A B C D E F G H I J K L M N O P Q R S T U V W X Y Z # 

I Would Have Left You Tabs

(ver. 1) Click to play this song!
Reef
 Rating:
4/5 (4 votes)

 I Would Have Left You lessons Tabs too difficult? Try these video lessons and learn fast
 
                ...I WOULD HAVE LEFT YOU BABE... by Reef
--------------------------------........

*from 'Glow' (1997)*


*DROP D TUNING*

(DADGBE)


Intro:

    D
e|-----------------------|
B|-----7-----------------|
G|--------7-7--5-5-------|
D|------------------5-7--|
A|--5--------------------|
D|-----------------------| (x4)

Verse 1:

(with Intro Riff):

D
 Won't you give, pictures of you?
We'll go out, lounge by the pool.
After the sun has baked us through;
We'll retreat, to the bedroom.

Chorus 1:

    D
e|-------------------|--------------------|
B|-------------------|--------------------|
G|-------------------|--------------------|
D|--------------3-4--|--x-x-----x-x-------|
A|--3-5--5-5-5-------|--x-x--3--x-x-------|
D|-------------------|--x-x-----x-x--3-0--|

(with Chorus Riff):

I would have left you, babe,
I would have left you, babe,
I would have left you, babe, if I only could.

I would have left you, babe,
I would have left you, babe,
I would have left you, babe, if I only could.

Verse 2:

(with Intro Riff):

D
 When we are where we should be;
There'll be no questions in me.
After all was said before,
You came and grabbed some more.

Chorus 2:

(with Chorus Riff):

I would have left you, babe,
I would have left you, babe,
I would have left you, babe, if I only could.

I would have left you, babe,
I would have left you, babe,
I would have left you, babe, if I only could. Alright, yeah.

Bridge 1:

    G
e|-----------------|------------------------|
B|-----------------|------------------------|
G|-----------------|------------------------|
D|----------0-0-0--|---------0-0---------0--|
A|--3-5-5----------|--3-5-5-------3-5-5-----|
D|-----------------|------------------------|
    Keep on,                      keep on,

e|-------------------|----------------------|
B|-------------------|-----------------3-0--|
G|-------------------|--------2--5-2--------|
D|---------0--0-0-3--|--5--0----------------|
A|--3-5-5------------|----------------------|
D|-------------------|----------------------|
                           Now I would have...

(with Chorus Riff):

D
 Left you, babe, if I only could. I said, I said...

    G
e|-----------------|------------------------|
B|-----------------|------------------------|
G|-----------------|------------------------|
D|----------0-0-0--|---------0-0---------0--|
A|--3-5-5----------|--3-5-5-------3-5-5-----|
D|-----------------|------------------------|
    Keep on,                      keep on,

e|-------------------|----------------------|
B|-------------------|-----------------3-0--|
G|-------------------|--------2--5-2--------|
D|---------0--0-0-3--|--5--0----------------|
A|--3-5-5------------|----------------------|
D|-------------------|----------------------|
    A keep on, it don't matter now, yeah.

(with Chorus Riff):

D
 Yeah, alright now.
                       F5
Keep on; don't matter, yeah.

Chorus 3:

(with Chorus Riff):

I would have left you, babe,
I would have left you, babe,
I would have left you, babe, if I only could.

I would have left you, babe,
I would have left you, babe,
I would have left you, babe, if I only could.

I would have left you, sweet girl,
I would have left you, honey pie,
I would have left you, sugar, if I only could.

I would have left you, dumpling,
I would have left you, brownie girl,
I would have left you, babe, if I only could, oh yeah.

Outro:

    G
e|-----------------|------------------------|
B|-----------------|------------------------|
G|-----------------|------------------------|
D|----------0-0-0--|---------0-0---------0--|
A|--3-5-5----------|--3-5-5-------3-5-5-----|
D|-----------------|------------------------|
                                    People,

e|-------------------|----------------------|
B|-------------------|-----------------3-0--|
G|-------------------|--------2--5-2--------|
D|---------0--0-0-3--|--5--0----------------|
A|--3-5-5------------|----------------------|
D|-------------------|----------------------|
    Keep on, ah people.

    G
e|-----------------|------------------------|
B|-----------------|------------------------|
G|-----------------|------------------------|
D|----------0-0-0--|---------0-0---------0--|
A|--3-5-5----------|--3-5-5-------3-5-5-----|
D|-----------------|------------------------|

                                               D5
e|-------------------|----------------------|-----|
B|-------------------|-----------------3-0--|-----|
G|-------------------|--------2--5-2--------|-----|
D|---------0--0-0-3--|--5--0----------------|--0--|
A|--3-5-5------------|----------------------|--0--|
D|-------------------|----------------------|--0--|
                                   No, no...


CHORD DIAGRAMS:
---------------

   D       G       D5

 DADGBE  DADGBE  DADGBE
 057775  555xxx  000xxx
            
Submit corrections


        I Would Have Left You lessons Hard to play? Try these video lessons and learn fast I Would Have Left You lessons
        
↑ Back to top | Tablatures and chords for acoustic guitar and electric guitar, ukulele, drums are parodies/interpretations of the original songs. You may use it for private study, scholarship, research or language learning purposes only