» » »

Reef - Feed Me Tabs

Artists:  A B C D E F G H I J K L M N O P Q R S T U V W X Y Z # 

Feed Me Tabs

(ver. 1) Click to play this song!
Reef
 Rating:
4/5 (4 votes)

 Feed Me lessons Tabs too difficult? Try these video lessons and learn fast
 
                ----------------------------------------------------------------------------
----------------------------------------------------------------------------

Tuning: DADGBe (Drop-D)

I've finally worked out this amazing song by Reef! Enjoy!


Verse Riff
e]----0-0--0--0-------0-0--0---0--|
B]----0-0--0--0-------0-0--0---0--|
G]----7-7-/5-/7-------7-7-/10-/5--|
D]-0--x-x-/x--x----0--x-x--x---x--|
A]-0--5-5-/3-/5----0--5-5-/8--/3--|
D]-0--0-0--0--0----0--0-0--0---0--|

Chorus (`I don't think that this makes too much sense`)
e]-----------------------------|
B]-----------------------------|
G]-----------------------------|
D]--3--3--3--3-----5--5--5--5--|
A]--3--3--3--3-----5--5--5--5--|
D]--3--3--3--3-----5--5--5--5--| Followed by riff

Pre-Verse or Something (`Can't you see i'm all used up...')
e]--------------------------------|
B]--------------------------------|
G]----7-------------7-------------|
D]----0---3--5------0---3--5------|
A]-0--5---3--5---0--5---3--5------|
E]-0--0---3--5---0--0---3--5------|


Structure:

Verse Riff x4 for intro
Verse Riff x4 for verse
Chorus x1
Verse Riff x4
Chorus x2
Pre-Verse
Verse Riff x12
Chorus x2
Pre-Verse
Verse Riff until the end


Thanks for looking!
            
Submit corrections


        Feed Me lessons Hard to play? Try these video lessons and learn fast Feed Me lessons
        
↑ Back to top | Tablatures and chords for acoustic guitar and electric guitar, ukulele, drums are parodies/interpretations of the original songs. You may use it for private study, scholarship, research or language learning purposes only