Home » R » Red Pears »

Red Pears - In My Mind Acoustic Chords

Artists:  A B C D E F G H I J K L M N O P Q R S T U V W X Y Z # 

In My Mind Acoustic Chords

(ver. 1) Click to play this song!
Red Pears
[Intro]
 
e|---------------------------------------------------------------------|
B|---------------------------------------------------------------------|
G|---------------------------------------------------------------------|
D|------------7-6-7-6---------9-7-6-7---------7-6-7-6---------9-7-6-7--|        x4
A|----7-7-7-7---------7-7-7-7---------6-6-6-6---------6-6-6-6----------|
E|---------------------------------------------------------------------|
 
 
[Verse 1]
 
e|---------------------------------------------------------------------|
B|---------------------------------------------------------------------|
G|---------------------------------------------------------------------|
D|------------7-6-7-6---------9-7-6-7---------7-6-7-6---------9-7-6-7--|        x4
A|----7-7-7-7---------7-7-7-7---------6-6-6-6---------6-6-6-6----------|
E|---------------------------------------------------------------------|
 
 
[Chorus]
            E
'Cause in my mind
           D#m
I have left you dry
           C#m
Put it out tonight
                    B
Been there wrong from right
           E
'Cause in my mind
             D#m
Everything's complete
              C#m
Wonder where we'll meet
               Bm
I could be there right
N.C.
before you'll never know
 
[Bridge]
 
e|---------------------------------------------------------------------|
B|---------------------------------------------------------------------|
G|---------------------------------------------------------------------|
D|------------7-6-7-6---------9-7-6-7---------7-6-7-6---------9-7-6-7--|        x4
A|----7-7-7-7---------7-7-7-7---------6-6-6-6---------6-6-6-6----------|
E|---------------------------------------------------------------------|
 
[Verse 2]
 
e|---------------------------------------------------------------------|
B|---------------------------------------------------------------------|
G|---------------------------------------------------------------------|
D|------------7-6-7-6---------9-7-6-7---------7-6-7-6---------9-7-6-7--|        x4
A|----7-7-7-7---------7-7-7-7---------6-6-6-6---------6-6-6-6----------|
E|---------------------------------------------------------------------|
 
[Chorus]
            E
'Cause in my mind
           D#m
I have left you dry
           C#m
Put it out tonight
                    B
Been there wrong from right
           E
'Cause in my mind
             D#m
Everything's complete
              C#m
Wonder where we'll meet
               Bm
I could be there right
N.C.
before you'll never know
            
Submit corrections

↑ Back to top | Tablatures and chords for acoustic guitar and electric guitar, ukulele, drums are parodies/interpretations of the original songs. You may use it for private study, scholarship, research or language learning purposes only