Home » R » Red Guitar »

Red Guitar - Already Over Tabs

Artists:  A B C D E F G H I J K L M N O P Q R S T U V W X Y Z # 

Already Over Tabs

(ver. 2) Click to play this song!
Red Guitar

Tunning: Drop D tuned down a half step (Db,Ab,Db,Gb,Bb,Eb)

No Guitar Until Chorus

[Chorus 1]

Eb|--------------|
Bb|--------------|
Gb|--------------|
Db|-4--7--2--9-0-|
Ab|-4--7--2--9-0-|
Db|-4--7--2--9-0-|
play twice

No Guitar In Verse

[Chorus 2]

Eb|--------------|
Bb|--------------|
Gb|--------------|
Db|-4--7--2--9-0-|
Ab|-4--7--2--9-0-|
Db|-4--7--2--9-0-|
play twice


[Bridge]

Eb|---------------|
Bb|---------------|
Gb|---------------|
Db|-0--2--4--2--0-|
Ab|-0--2--4--2--0-|
Db|-0--2--4--2--0-|

play this clean using alternate picking

Eb|------------------------|
Bb|------------------------|
Gb|------------------------|
Db|-4-4--7-7--2-2--9-9-0-0-|
Ab|-4-4--7-7--2-2--9-9-0-0-|
Db|-4-4--7-7--2-2--9-9-0-0-|
Play Twice

[Chorus 3]

Eb|--------------|
Bb|--------------|
Gb|--------------|
Db|-4--7--2--9-0-|
Ab|-4--7--2--9-0-|
Db|-4--7--2--9-0-|
play five times

Enjoy.
            
Submit corrections

↑ Back to top | Tablatures and chords for acoustic guitar and electric guitar, ukulele, drums are parodies/interpretations of the original songs. You may use it for private study, scholarship, research or language learning purposes only