Home » R » Red Car Wire »

Red Car Wire - The West Coast Tabs

Artists:  A B C D E F G H I J K L M N O P Q R S T U V W X Y Z # 

The West Coast Tabs

(ver. 1) Click to play this song!
Red Car Wire
-------------------------------------------------------------------------------
-------------------------------------------------------------------------------

Tuning: Standard


Intro
e|---------------------------------------------------------------------------|
B|--9-9-9--0-0-0--10-10-10-10-10--9-9--7-0-----------------------------------|
G|--9-9-9--9-9-9--9--9--9--9--9---9-9--9-9-----------------------------------|
D|---------------------------------------------------------------------------|
A|---------------------------------------------------------------------------|
E|---------------------------------------------------------------------------|


e|---------------------------------------------------------------------------|
B|--9-9-9--0-0-0-------------------------------------------------------------|
G|--9-9-9--9-9-9-------------------------------------------------------------|
D|-----------------9-9-9-9--7-7--6-6-----------------------------------------|
A|------------------------------------9-9--7-7-------------------------------|
E|----------------------------------------------7----------------------------|


e|---------------------------------------------------------------------------|
B|---------------------------------------------------------------------------|
G|---------------------------------------------------------------------------|
D|--9-9-9-9--7-7--6-6-----------------X2-------------------------------------|
A|---------------------9-9--7-7----------------------------------------------|
E|-------------------------------7-------------------------------------------|


e|---------------------------------------------------------------------------|
B|---------------------------------------------------------------------------|
G|---------------------------------------------------------------------------|
D|--9-9-9-9--7-7--6-6--------------------------------------------------------|
A|---------------------9-9--7~-----------------------------------------------|
E|---------------------------------------------------------------------------|


G-tar 2
e|---------------------------------------------------------------------------|
B|---------------------------------------------------------------------------|
G|--9------------------------------------------------------------------------|
D|--9-x16---9------7-------9------------------------------------------------|
A|--7-------9-x16--7-x16---9-x16--------------------------------------------|
E|----------7------5-------7-------------------------------------------------|


Verse
e|--------------------------------------------------------------------------|
B|--------------------------------------------------------------------------|
G|--9-----------------------------------------------------------------------|
D|--9-x8--7-----9-----7-------X2--------------------------------------------|
A|--7-----7-x8--9-x8--7-x8--------------------------------------------------|
E|--------5-----7-----5-----------------------------------------------------|
   Kids are so simple....

Or

e|--------------------------------------------------------------------------|
B|--------------------------------------------------------------------------|
G|--9-----14-----11-----14-----13-------------------------------------------|
D|--9-x8--14-x8--11-x8--14-x4--13-x4----------------------------------------|
A|--7-----12-----9------12-----11-------------------------------------------|
E|--------------------------------------------------------------------------|
    Kids are so simple....

(which ever floats your boat)


Chorus
e|--------------------------------------------------------------------------|
B|--------------------------------------------------------------------------|
G|--9------14-----13--------------------------------------------------------|
D|--9-x16--14-x8--13-x8----X4-----------------------------------------------|
A|--7------12-----11--------------------------------------------------------|
E|--------------------------------------------------------------------------|
   Where do we wanna go....


Ending
e|--------------------------------------------------------------------------|
B|----------(sliding root note back and forth)------------------------------|
G|----------------9-9-9-9-9-9-9-9-------------------------6~~---------------|
D|--11-----7------9-9-9-9-9-9-9-9----11-----7-----9-------6~~---------------|
A|--11-x8--7-x7---7-6-7-6-7-6-7-6----11-x8--7-x8--9-x16---4~~---------------|
E|--9------5-------------------------9------5-----7-------------------------|


The End

Thank you and i hopefully will have more tabs up soon
            
Submit corrections

↑ Back to top | Tablatures and chords for acoustic guitar and electric guitar, ukulele, drums are parodies/interpretations of the original songs. You may use it for private study, scholarship, research or language learning purposes only