» » »

Red Car Wire - Rachael Leigh Cook Tabs

Artists:  A B C D E F G H I J K L M N O P Q R S T U V W X Y Z # 

Rachael Leigh Cook Tabs

(ver. 1) Click to play this song!
Red Car Wire
 Rating:
4/5 (4 votes)

 Rachael Leigh Cook lessons Tabs too difficult? Try these video lessons and learn fast
 
                -------------------------------------------------------------------------------
-------------------------------------------------------------------------------

Tuning: Standard

Intro (Riff)
e|--------------------------------------------------------------------------|
B|--------------------------------------------------------------------------|
G|--------------------------------------------------------------------------|
D|--------4-4-------4---------4---------4-4---------4-5-7-5-4-0-------------|
A|--5-h-7-----5-h-7----5-h-7------5-h-7------5-h-7--------------------------|
E|--------------------------------------------------------------------------|

e|--------------------------------------------------------------------------|
B|--------------------------------------------------------------------------|
G|--------------------------------------------------------------------------|
D|--------4-4---------4--------4--------4-4--------4-4-4-4h5-5-4-0----------|
A|--5-h-7-------5-h-7----5-h-7----5-h-7------5-h-7--------------------------|
E|--------------------------------------------------------------------------|

(Drums speed up)
e|--------------------------------------------------------------------------|
B|--------------------------------------------------------------------------|
G|--------------------------------------------------------------------------|
D|--------4-4-------4---------4---------4-4---------4-5-7-5-4-0-------------|
A|--5-h-7-----5-h-7----5-h-7------5-h-7------5-h-7--------------------------|
E|--------------------------------------------------------------------------|

e|--------------------------------------------------------------------------|
B|--------------------------------------------------------------------------|
G|--------------------------------------------------------------------------|
D|--------4-4-------4--------4---------4-4---------4-4-5-7-7--7-5-0---------|
A|--5-h-7-----5-h-7----5-h-7-----5-h-7------5-h-7---------------------------|
E|--------------------------------------------------------------------------|


Intro (g-tar 2)
e|------------------------------------------------------------------| 
B|------------------------------------------------------------------|  
G|--7-7---7-7---7---------------------------------------------------|  
D|--7-7---7-7---7--7--7-7-7--5-5--5-5--7--7-7-7---------------------|   
A|--5-5---5-5---5--7--7-7-7--5-5--5-5--7--7-7-7---------------------|   
E|-----------------5--5-5-5--3-3--3-3--5--5-5-5---------------------|  
                                                                      X2]
                                                                      
e|------------------------------------------------------------------|  
B|------------------------------------------------------------------|  
G|--7-7---7-7---7---------------------------------------------------|   
D|--7-7---7-7---7--7--7-7-7--5-5--5-5---7-7-7-7--5-5-5--------------|  
A|--5-5---5-5---5--7--7-7-7--5-5--5-5---7-7-7-7--5-5-5--------------|  
E|-----------------5--5-5-5--3-3--3-3---5-5-5-5--3-3-3--------------| 


Verse
e|--------------------------------------------------------------------------|
B|--------------------------------------------------------------------------|
G|--7-----------------------------------------------------------------------|
D|--7--------7--------5-5--5-5--5-5--5--5-5-5----5-5--5-5--5-5--5--5-5-5----|
A|--5--------7--------5-5--5-5--5-5--5--5-5-5----5-5--5-5--5-5--5--5-5-5----|
E|-----------5--------3-3--3-3--3-3--3--3-3-3----3-3--3-3--3-3--3--3-3-3----|
                    PM. .  . .  . .  .  . . .    . .  . .  . .  .  . . .
  Wake Up, Breath Out...

e|--------------------------------------------------------------------------|
B|--------------------------------------------------------------------------|
G|--7-7-7-------------------------------------------------------------------|
D|--7-7-7-----7-7-7----5-5--5-5--5-5--5--5-5-5----5-5--5-5--5-5--5--5-5-5---|
A|--5-5-5-----7-7-7----5-5--5-5--5-5--5--5-5-5----5-5--5-5--5-5--5--5-5-5---|
E|------------5-5-5----3-3--3-3--3-3--3--3-3-3----3-3--3-3--3-3--3--3-3-3---|
                     PM. .  . .  . .  .  . . .    . .  . .  . .  .  . . .
   Break Up


e|--------------------------------------------------------------------------|
B|--------------------------------------------------------------------------|
G|-7------------------------------------------------------------------------|
D|-7----7---5---7-x-x-7-x-x-7-7-7-7-----------------------------------------|
A|-5----7---5---7-x-x-7-x-x-7-7-7-7-----------------------------------------|
E|------5---3---5-x-x-5-x-x-5-5-5-5-----------------------------------------|

  And All that i need...


Chorus
e|--------------------------------------------------------------------------|
B|--------------------------------------------------------------------------|
G|-7------------------------------------------------------------------------|
D|-7-x-16--7-------5--------7-----------------------------------------------|
A|-5-------7-x-16--5-x-16---7-x-16------------------------------------------|
E|---------5-------3--------5-----------------------------------------------|


e|--------------------------------------------------------------------------|
B|--------------------------------------------------------------------------|
G|-10-----10\\\\------------------------------------------------------------|
D|-10-x-6-10\\\\------------------------------------------------------------|
A|-10-----10\\\\------------------------------------------------------------|
E|--------------------------------------------------------------------------|

Intro

Verse

Pre chorus

Chorus

Break (G-tar 1)
e|--------------------------------------------------------------------------|
B|-------5---------5------------5------------5------------------------------|
G|----7-----7----7---7-------7-----7------7-----7---------------------------|
D|--------------------------------------------------------------------------|
A|-5-----------5------------------------------------------------------------|
E|------------------------3------------5------------------------------------|

I can't stand this

Break (G-tar 2)
e|--------------------------------------------------------------------------|
B|--------------------------------------------------------------------------|
G|-7-7-----7-7--------------------------------------------------------------|
D|-7-7-----7-7-----5-5-----7-7----------------------------------------------|
A|-5-5-----5-5-----5-5-----7-7----------------------------------------------|
E|-----------------3-3-----5-5----------------------------------------------|
PM...............................

G-tar 2 (cont'd) [Plays quietish in the background)
e|--------------------------------------------------------------------------|
B|--------------------------------------------------------------------------|
G|-7--7--7--7---------------------------------------------------------------|
D|-7--7--7--7-x2--5--5--5--5-----------X2-----------------------------------|
A|-5--5--5--5-----5--5--5--5-x2---------------------------------------------|
E|----------------3--3--3--3------------------------------------------------|


Chorus

Finish with
e|--------------------------------------------------------------------------|
B|--------------------------------------------------------------------------|
G|-7------------------------------------------------------------------------|
D|-7------------------------------------------------------------------------|
A|-5------------------------------------------------------------------------|
E|--------------------------------------------------------------------------|


I had the majority of this tabbed out about 6 months ago but finally decided to finish it.
Also if u have an account please rate my tabs
(especially the song "the west coast" which probably got rated by a kid who couldn't 
the song, therefore it MUST of been a bad tab...would be great if you could take the rating 
that up)

Thanks, Mykal
            
Submit corrections


        Rachael Leigh Cook lessons Hard to play? Try these video lessons and learn fast Rachael Leigh Cook lessons
        
↑ Back to top | Tablatures and chords for acoustic guitar and electric guitar, ukulele, drums are parodies/interpretations of the original songs. You may use it for private study, scholarship, research or language learning purposes only