» » »

Reckless Love - Night On Fire Tabs

Artists:  A B C D E F G H I J K L M N O P Q R S T U V W X Y Z # 

Night On Fire Tabs

(ver. 2) Click to play this song!
Reckless Love
 Rating:
3/5 (23 votes)

 Night On Fire lessons Tabs too difficult? Try these video lessons and learn fast
 
                Intro
e-------------------------|
B-------------------------|
G--6--6\-----6--6\--------|
D--6--6\-----6--6\----x\--|
A--4--4\-----4--4\----x\--|
E-------------------------|

2nd part of Intro
e-------------------------------------------|
B-------------------------------------------|
G--6--6--x-6-2--2--x-2-----------4--4--x-4--|
D--6--6--x-6-2--2--x-2-2--2--x-2-4--4--x-4--|
A--4--4--x-4-0--0--x-0-2--2--x-2-2--2--x-2--|
E----------------------0--0--x-0------------|

Verse
e----------------------------------------------------------------|
B----------------------------------------------------------------|
G--6--6-----6--6---6--6--x-6-2--2--x-2-----------4--4--x-4--4-5--|
D--6--6-----6--6---6--6--x-6-2--2--x-2-2--2--x-2-4--4--x-4--4-5--|
A--4--4-----4--4---4--4--x-4-0--0--x-0-2--2--x-2-2--2--x-2--2-3--|
E--------------------------------------0--0--x-0-----------------| X2

Pre Chorus
e---------------------------|
B---------------------------|
G--2-------2-----4-4-4-4-4--|
D--2-------2-----4-4-4-4-4--|
A--0-------0-----2-2-2-2-2--|
E--------4------------------|


Chorus
e-------------------------------------------|
B-------------------------------------------|
G--6--6--x-6-2--2--x-2-----------4--4--x-4--|
D--6--6--x-6-2--2--x-2-2--2--x-2-4--4--x-4--|
A--4--4--x-4-0--0--x-0-2--2--x-2-2--2--x-2--|
E----------------------0--0--x-0------------| X3

e-----------------------|
B-----------------------|
G--2--2--2-----2--2--2--|
D--2--2--2-----2--2--2--|
A--0--0--0-----0--0--0--|
E-----------------------|

e-------------------------------------------|
B-------------------------------------------|
G--6--6--x-6-2--2--x-2-----------4--4--x-4--|
D--6--6--x-6-2--2--x-2-2--2--x-2-4--4--x-4--|
A--4--4--x-4-0--0--x-0-2--2--x-2-2--2--x-2--|
E----------------------0--0--x-0------------| X2

Verse

Pre Chorus

Chorus
e-------------------------------------------|
B-------------------------------------------|
G--6--6--x-6-2--2--x-2-----------4--4--x-4--|
D--6--6--x-6-2--2--x-2-2--2--x-2-4--4--x-4--|
A--4--4--x-4-0--0--x-0-2--2--x-2-2--2--x-2--|
E----------------------0--0--x-0------------| X3

e-----------------------|
B-----------------------|
G--2--2--2-----2--2--2--|
D--2--2--2-----2--2--2--|
A--0--0--0-----0--0--0--|
E-----------------------|

Solo
e----------------0--0------------4--4------7-----9--9--------12p9------14--14p12p9--|
B--/6v-----2p0--------2p0--5p2--------5p2----9p7-------12p9--------12---------------|
G--------------1---------------4----------------------------------------------------|
D-----------------------------------------------------------------------------------|
A-----------------------------------------------------------------------------------|
E-----------------------------------------------------------------------------------|


e--16p12----16p12----16p12--17p12-----17p12------17p12--16p12-----16p12----16p12--|
B--------14-------14--------------14---------14---------------12--------12--------|
G---------------------------------------------------------------------------------|
D---------------------------------------------------------------------------------|
A---------------------------------------------------------------------------------|
E---------------------------------------------------------------------------------|
||
e--14p11-14-12-11--------|    |-------|
B-----------------14-12--|    |--/14--|
G------------------------|    |-------|
D------------------------|    |-------|
A------------------------|    |-------|
E------------------------| X2 |-------|


e-----11-12-11h12p11--------/19-17-16-----|
B--14----------------14-12------------19--|
G-----------------------------------------|
D-----------------------------------------|
A-----------------------------------------|
E-----------------------------------------|
       
                         
e------21-21----21-21-----21W---|            ||--------------------|
B-------------------------------|            ||--------------------|
G--/18------/18------/18--------|            ||-6-6-6--6-6-6-6/18--|
D-------------------------------|            ||--------------------|
A-------------------------------|            ||--------------------|
E-------------------------------|            ||--------------------|
on the last part of the solo you can do this ||or if you have an octave pedal do this

Pre Chorus

Chorus 
e-------------------------------------------|
B-------------------------------------------|
G--6--6--x-6-2--2--x-2-----------4--4--x-4--|
D--6--6--x-6-2--2--x-2-2--2--x-2-4--4--x-4--|
A--4--4--x-4-0--0--x-0-2--2--x-2-2--2--x-2--|
E----------------------0--0--x-0------------| X3

e-----------------------|
B-----------------------|
G--2--2--2-----2--2--2--|
D--2--2--2-----2--2--2--|
A--0--0--0-----0--0--0--|
E-----------------------|            
Submit corrections


        Night On Fire lessons Hard to play? Try these video lessons and learn fast Night On Fire lessons
        
↑ Back to top | Tablatures and chords for acoustic guitar and electric guitar, ukulele, drums are parodies/interpretations of the original songs. You may use it for private study, scholarship, research or language learning purposes only