Home » R » Reckless Kelly »

Reckless Kelly - Wretched Again Tabs

Artists:  A B C D E F G H I J K L M N O P Q R S T U V W X Y Z # 

Wretched Again Tabs

(ver. 1) Click to play this song!
Reckless Kelly
"Wretched Again" (Track 9)
Reckless Kelly

WITH CAPO ON II:
Main Riff:
e|---------------------------------|
B|---------------------------------|
G|----------------0----------------|
D|---------0--1/2---2p0---0--------|
A|-0-0-3-0--------------3---3------|
E|----------------------------0-3--|

Riff 1:
e|----------------------|
B|----------------------|
G|-----0----------------|
D|-1/2---2p0---0--------|
A|-----------3---3------|
E|-----------------0-3--|


NO CAPO:
Main Riff:
e|---------------------------------|
B|---------------------------------|
G|----------------2----------------|
D|-----0---2--2/4---4p2p0-2-0------|
A|-2-2---2----------------------0--|
E|----------------------------2----|

Riff 1:
e|----------------------|
B|----------------------|
G|-----2----------------|
D|-2/4---4p2p0-2-0------|
A|-------------------0--|
E|-----------------2----|

CAPO II, all chords rel.

A5: x022xx
D5: xx023x
E5: 022xxx
C:  332010
G:  320033
F:  133211
E:  022100

Intro: Main Riff (4x)

Verse 1:
        A5      D5
I had a sweet thing going
       A5        D5      Riff 1
On the high side of town
           A5           D5
I tried to fit in her world
       A5              D5   Riff 1
But it came crashing down

Chorus:
        E5
She was mine for awhile
           D5
She was so fine for awhile
        D5(stop)                    Main Riff (2x)
Now I’m back to being wretched again (Wretched again)

Verse 2:
She really spoiled me rotten
She made me a kept man
Well I miss my nights rockin’ (all night rockin’)
In her sweet hands

Chorus:
But she was mine for awhile
I did my time with a smile
Now I’m back to being wretched again (Wretched again)

Bridge:
C 
 Yeah, she really had her claws in me
G
 Well I had to just get back on the street
F
 And down to the other side of the track
      E
Right where I belong with the rest of the trash
(N.C.)                  Main Riff (2x)
And being wretched again (Wretched again) (Wretched again)


Guitar Solo: Play Main Riff (4x)
             Play Chorus
             Play Main Riff (leads into next verse)


We were the unlikely couple
And the word got around
That I was headed for trouble (oooh big trouble)
Runnin' with the wrong crowd

Chorus:
I toed the line for awhile
And I lived high for awhile
And it was fine for awhile
Now I’m back to being wretched again (Wretched, wretched again)

Chorus:
Yeah, it was fine for awhile
I did my time with a smile
She was so fine for awhile
Now I’m back to being wretched again
(Wretched, wretched again)
(Wretched, wretched again)
            
Submit corrections

↑ Back to top | Tablatures and chords for acoustic guitar and electric guitar, ukulele, drums are parodies/interpretations of the original songs. You may use it for private study, scholarship, research or language learning purposes only