Home » R » Reckless Kelly »

Reckless Kelly - A Guy Like Me Tabs

Artists:  A B C D E F G H I J K L M N O P Q R S T U V W X Y Z # 

A Guy Like Me Tabs

(ver. 1) Click to play this song!
Reckless Kelly
Main Riff

G-----------------------

D----------------5-5----

A---7--8-7-5---7-----5-7

E-5---5------8----------


Chorus               Repeat this for rest of Chorus

G----------------|----------------|

D---------5-5-5-5|-7-7---------5-5|

A-8-8------------|-----8-8--------|

E-----8-8--------|---------8-8----|


Bridge

G-----------------------------------------------------------------------------------

D-----------------5-5-5---5-7-7-----------------------------------------------------

A-8--8--------5-7-------7-------8-8------5-7-8-8-7-7-5-5-5-5-10-10-10-10-10-10-10-10

E------8--8-8----------------------8-8-8--------------------------------------------



There's all the pieces now you just need to put them together.  couple tricky pauses and 
breaks in there but it's a lot of fun to play. First tab to do so Enjoy!
            
Submit corrections

↑ Back to top | Tablatures and chords for acoustic guitar and electric guitar, ukulele, drums are parodies/interpretations of the original songs. You may use it for private study, scholarship, research or language learning purposes only