Home » R » Reckless Kelly »

Reckless Kelly - Dogtown Tabs

Artists:  A B C D E F G H I J K L M N O P Q R S T U V W X Y Z # 

Dogtown Tabs

(ver. 1) Click to play this song!
Reckless Kelly
Dogtown(solo)
Reckless Kelly
Wicked Twisted Road


|-----------------------------------------------------------------
|-----------------------------------------------------------------
|------------------------------------17~--16-14\12--9h10--10/12---
|-----10h11h12--12/14--14/15--15/17-------------------------------
|--12-------------------------------------------------------------
|-----------------------------------------------------------------


|----------------------------------------------------------------
|--------------------------------8--8/10--10/12--12/13~-----
|-12\7--10p9--9h10--10/12---12\7---------------------
|-------12-----------------------------------------------------
|----------------------------------------------------------------
|----------------------------------------------------------------
            
Submit corrections

↑ Back to top | Tablatures and chords for acoustic guitar and electric guitar, ukulele, drums are parodies/interpretations of the original songs. You may use it for private study, scholarship, research or language learning purposes only